Oops, an error
Loading. Please wait.

Al Fin Sucede Tab

version 1
version 1

Whole song

Interactive

320 views 1 this week
no commentswrite comment
1 2 3 4 5
3 more votes to show rating
add to favorites
launch autoscroll
font size
0
reset
how to read this tab
guitar tuner
Autoscroll
slow
fast
+/-
esc
set tempo
stop
Help us to improve Ultimate-Guitar.com Take our survey!
×
La intro es asi:

e||-----3-3-3-3-
B||-----1-1-1-0-
G||-----0-0-0-0-
D||-----3-3-3-3-    (x4)
A||-----0-0-0-0-
E||-3-3-3-3-3-3-

Gm               C                      Gm        C
 Estoy un poco harto de entrar en tus juegos de mente
Gm           C                   Bm             Bb              F
 otra nube gris se aproxima y yo sé, que tanto le temes que al fin sucede


 G
 Te es más fácil no creer en nada ni en nadie

(cuando dice "nadie" hace armónicos en
 las cuerdas 1 a 4 en el traste 7)

negación de tu parte ya estoy haciendo planes sin vos

Gm                C                     Gm        C
 La vida dura un salto, quedarse, una muerte segura
Gm              C                     Bm
 este era el momento y lo echaste a perder tanto
 Bb                F        G(intro) F
 le temes que (al fin sucede) x3

Bb            A                Dm
 Todo lo que necesitas es una duda razonable
Bb                    A         Dm            D#
 para mostrarte tu deseo basta con prohibírtelo un poco

Solo [Base (Gm C) x3]:

e||-----------------------------------------------------------------------
b||---------6-5-----------------------------------------------------------
g||---5-3---------5-3-0-----3-------------------------------------------3-
d||---------------------3/5---5/3---3--------------------------0-3-0------
a||-3-----3-----3-----------------5---5---3-----------------1-3-----------
E||-----------------------------------------6--5--3-1---1-3---------------


e||-------------3-3-----3-3-------6---6---8b9-----------------------------
b||-------------3-3-----3-3-6-6/8---8---8-----12-11-10-9-8-7-6-5-4-3-1-0--
g||-0-0-0-0-5b7-----5b7---------------------------------------------------
d||-----------------------------------------------------------------------
a||-----------------------------------------------------------------------
E||-----------------------------------------------------------------------

y ahí empieza con la intro de nuevo


Bm     Bb                F         G(intro)
 Tanto lo deseas que al fin sucede,
Bm     Bb                F         G(intro)
 tanto le temes que (al fin sucede) x3

e||----3----3-----3---
B||----3----3-----1---
G||----0----0-----0---   (x8)
D||----0----0-----2---
A||----2----1-----3---
E||----3----X-----X---

Final: Ab
Suggest correction
Give kudos to tab author, rate the tab!
1 2 3 4 5
comments
print report bad tab
guest
You may want to rate the tab now too:
select rating
Wanna post a correction for this tab? Suggest correction