Oops, an error
Loading. Please wait.

Alma Tab

220 views 6 this week
no commentswrite comment
1 2 3 4 5
3 more votes to show rating
add to favorites
launch autoscroll
font size
0
reset
how to read this tab
guitar tuner
Autoscroll
slow
fast
+/-
esc
set tempo
stop
La parte principal es asi


E -----0---0---0---0---1---1---1---3-
B ---1---1---1---1---1---1---1---1---
G -----------------------------------
D -----------------------------------
A -----------------------------------
E -----------------------------------

El estribillo

E ---3---3---3---3---5---6---5---
B -3---3---3---3---3---3---3-----
G -------------------------------
D -------------------------------
A -------------------------------
E -------------------------------


Y el fraseo que hace varias veces en el tema es

E ---------1-1
B ------1-----
G ---2h3------
D ------------
A ------------
E ------------
Suggest correction
Give kudos to tab author, rate the tab!
1 2 3 4 5
comments
print report bad tab
guest
You may want to rate the tab now too:
select rating
Wanna post a correction for this tab? Suggest correction