Oops, an error
Loading. Please wait.

Av. Alcorta Bass Tab

326 views 1 this week
no commentswrite comment
1 2 3 4 5
3 more votes to show rating
add to favorites
launch autoscroll
font size
0
reset
guitar tuner
×
Best way to learn
"Av. Alcorta"
Autoscroll
slow
fast
+/-
esc
set tempo
stop
La canción no está 100% correcta, por lo tanto, agradezco
cualquier corrección que se le haga. Gracias.


G---------------------------|
D------3--0--3-----0--5--3--|
A---0-----------0-----------| (X6)
E---------------------------|

No sé... no sé donde estás...
G---------------------------|
D---0--3--5---0--3--5-------|
A---------------------------|
E---------------------------|

G---------------------------|
D------3--0--3-----0--5--3--|
A---0-----------0-----------| (X3)
E---------------------------|

Ya sé... ya llegué hasta aquí..
G---------------------------|
D---0--3--5---0--3--5-------|
A---------------------------|
E---------------------------|

G---------------------------|
D------1--3--1313-----1--3--|
A---3--------------3--------|
E---------------------------|

Avenida Alcorta...
G---------------------------|
D------3--0--3-----0--5--3--|
A---0-----------0-----------| (X2)
E---------------------------|

No sé... no sé donde estás...
G---------------------------|
D---0--3--5---0--3--5-------|
A---------------------------| (X2)
E---------------------------|

G---------------------------|
D------1--3--1313-----1--3--|
A---3--------------3--------| (X5)
E---------------------------|

G--------------|      |-----|
D------3--0--3-|      |-----|
A---0----------| (X6) |-3-3-|
E--------------|      |-----|
Suggest correction
Give kudos to tab author, rate the tab!
1 2 3 4 5
comments
print report bad tab
guest
You may want to rate the tab now too:
select rating
Wanna post a correction for this tab? Suggest correction