Oops, an error
Loading. Please wait.

Avenida Alcorta tab

2,199 views 15 this week
1 commentread comment
1 2 3 4 5
x 4
add to favorites
×
Save as Personal and add changes to this tab that will be seen only by you. Learn more ›
×
You can save this tab as Personal to edit and correct it or add notes. All changes will be seen only by you. Learn more »
launch autoscroll
font size
0
reset
how to read this tab
guitar tuner
edit
Autoscroll
slow
fast
+/-
esc
set tempo
stop
NOTE: Capo on 5th fret
All chords and fingering is shown relative to capo.
(i.e., put capo on 5th fret, and then you actually must finger 
5 frets further down on your fretboard compared to what is shown below)

NOTA: Cejilla en 5to traste
Todos los acordes y posiciones son relativas a la cejilla.
(i.e., poner cejilla en 5to traste, y despues deebes poner los dedos
5 trastes mas abajo comparado con lo que se muestra abajo)
 

INTRO
(Quite tricky...  pay close attention to bends)
(Bastante truculento...  prestar atencion a los bends)

E|--0----0-----0-(0)-(0)-(0)-0--(0)---------| 
B|--0----0-----0-(0)-(0)-(0)-0---0-0-0---0--|
G|--3b4--3b4------3-p-2-p-0--2b3-2-0-2b3-0--|
D|--2----2-------(2)-(2)-(2)-2---2-2-2---2--|
A|------------------------------------------|
E|------------------------------------------|

E|--0----0-----0---0---0---0----------| 
B|--0----0-----0---0---0---0---0-0----|
G|--3b4--3b4---3---3b4-3b4-3b4-2-2----|
D|--2----2---------2---2---2---2-2----|
A|------------------------------------|
E|------------------------------------|

E|--0---0---0--0-(0)-(0)-(0)-0--(0)---| 
B|--0---0---0--0-(0)-(0)-(0)-0---0----|
G|--3b-3b4-b4-----3-p-2-p-0--2---2b3--|
D|--2---2---2----(2)-(2)-(2)-2---2----|
A|------------------------------------|
E|------------------------------------|

E|--0----0-----0-(0)-(0)-(0)-0--(0)---| 
B|--0----0-----0-(0)-(0)-(0)-0---0----|
G|--3b4--3b4------3-p-2-p-0--2---2b3--|
D|--2----2-------(2)-(2)-(2)-2---2----|
A|------------------------------------|
E|------------------------------------|

E|--0----0-----0-(0)-(0)-(0)-0--(0)----0----(0)-| 
B|--0----0-----0-(0)-(0)-(0)-0---0-----0----(0)-|
G|--3b4--3b4------3-p-2-p-0--2---2b3---3b2-p-0--|
D|--2----2-------(2)-(2)-(2)-2---2--------------|
A|----------------------------------------------|
E|----------------------------------------------|



PATTERN 1 (Positions shown, listen to track for strum pattern)
          (Mostrando posiciones, escuchar la cancion para determinar patron de ritmo)

E||--0--0----------------0--|--0--------------------| x2
B||--0--1----------------1--|--0---3--2-------------|
G||--0--0--0-2-0-2-2br~--0--|--0--(0)-2---5~~--3~~--|
D||--2--2--0-2-0-2-2br~--2--|--2---2--2---4----2----|
A||--2--3--0-0-0-0-0-----3--|--2---2--0---5----3----|
E||--0--3----------------3--|--0--------------------|


PATTERN 2 (Positions shown, listen to track for strum pattern)
          (Mostrando posiciones, escuchar la cancion para determinar patron de ritmo)

  Avenida...       cicatriz...    
  Hoy Volvi...     de hablar...
  Providencia...   ser azar...
  Donde estemos... sera nuestro...
|--0----0----------(8)------|--10----9----8----6/---| x4 or x2
|--0----1----(0)----5-------|---8----8----7----5----|
|--0----0-----2-----5-------|---7----9----7----5----|
|--2----2-----2-----5-------|---9----7----7----5----|
|--2----3-----0-------------|---7----7--------------|
|--0----3-------------------|-----------------------|


PATTERN 3 (Positions shown, listen to track for strum pattern)
          (Mostrando posiciones, escuchar la cancion para determinar patron de ritmo)

  No se... (slight trem)
|--0--0-----(0)----(0)---| x2 or x4
|--0-----0---0------0----|
|--2---------0------0----|
|--2---------2------4----|
|--0---------3------5----|
|------------------------|


PATTERN 4 (Positions shown, listen to track for strum pattern)
          (Mostrando posiciones, escuchar la cancion para determinar patron de ritmo)

Encerrado...
|--3----3----3---| x2 or x10
|--3----3----3---|
|--0----0----0---|
|--0----x----2---|
|--2----1----3---|
|--3----x----x---|


OUTRO - from Pattern 4 /  desde Patron 4
       (slight trem / ligero trem)
|-------x-------------| 
|-------3-------------|
|-------0-------------|
|-------2-------------|
|-------3-------------|
|-------x-------------|

  (light)         (strong)
|-------------------0--0-0------------------------| 
|--3----------------3--3---3----------------------|
|----------2--------0--0--------0---2-------------|
|----2--2-----------2--2--------------------------|
|-------------------3--3--------------------------|
|-------------------------------------------------|

                  He encerrado...
|--0----(0)-------0--------0------| 
|--0----(0)-------0--------0------|
|--2 sl/ 4~-------0--------2------|
|-----------------2--------2------|
|---------------------------------|
|---------------------------------|

...para ti                                          Ya no tengo
|------0----(0)-0---0-------0--------0--0 -----0-----0---0----| 
|------3-sl/-5--5---3-------5--------7--8-sl/-10-----5---3----|
|------0----(0)-0---0-------0--------0--0------0-----0---0----|
|-------------------------------------------------------------|
|-------------------------------------------------------------|
|-------------------------------------------------------------|

...para mi        (slight trem)    (slow bend)
|-----0--0-----2--0~---------------0----(0)----------| 
|-----3--0-----0--0~---------------0----(0)----------|
|--x--0--0-------------------------3--b--4-----------|
|--x-------------------------------2----(2)----------|
|----------------------------------------------------|
|----------------------------------------------------|

            
            
Suggest correction
Creating personal tab
Creating personal tab
You can edit any tab online and save it as your Personal.

You can edit, replace or remove any tab part or add personal notes – all changes will be seen only by you.

Personal tabs can be accessed anytime from any device, even offline.
Learn more »
comments
print report bad tab
1 comment total.
0 reply
gnolivos 426 Nov 14, 2014 07:42 PM

Song is now complete. Cancion esta completa ahora. Gracias!

guest
You may want to rate the tab now too:
select rating
Wanna post a correction for this tab? Suggest correction