Oops, an error
Loading. Please wait.

Bomba De Tiempo Tab

281 views 1 this week
no commentswrite comment
1 2 3 4 5
2 more votes to show rating
add to favorites
launch autoscroll
font size
0
reset
how to read this tab
guitar tuner
Autoscroll
slow
fast
+/-
esc
set tempo
stop
Help us to improve Ultimate-Guitar.com Take our survey!
×
Ha bueno esta es mi primera aparición aquí en
la cuerda y aquí les va el comienzo de una bonísima
rola del maestro Cerati ?..

Comienza guitarra con distorsión

Intro
E----------------------------------------------------------
B----------------------------------------------------------
G----------------------------------------------------------
D----------------------------------------------------------
A------------3------------------------3--------------------
E---5-55-3-5---0---0--33---5--55--3-5---0---0--33--5-------

Asi  se repite las veces necesarias?(4 eces)
El bajo hace lo mismo
A----------3------------
E----55-5---0---33-55

Lam                              (escuchen los cambios)
LA7
Esto es una bomba de tiempo nena
                  LAm
Y nadie sabe como detenerla?

Como  detenerla.
LA7
Y ahora que los buitres sobrevuelan
                               LAm
Nuestro cuerpo es como un hilo que se tensa

Que se tensa..

(coro)
SI7                 LA7
Cuento dede cer, Ya sabemos como es
SI7                          LA7
Finalmente sera cero, cuando quiero correr
DOm                            LAm
La tierra se abre ante mis pies

Intro.
Y todo se repite?

En la ultima parte.

Tierra
(con distorsión)                     (las veces necesarias
A------3-----------3-------          al igual que el bajo)
E-55-5---0-33-55-5---0-33-5

espero qu ele entiendan y que les guste esta cancion
esta muy buen ay prendida!! dedicada a todos los amigos queme
apoyan!! cualquier duda,comentario o peticion escriban
a brincoelectronico@
Suggest correction
Give kudos to tab author, rate the tab!
1 2 3 4 5
comments
print report bad tab
guest
You may want to rate the tab now too:
select rating
Wanna post a correction for this tab? Suggest correction