Oops, an error
Loading. Please wait.

Cactus Tab

version 2
version 2

Whole song

Interactive

989 views 9 this week
no commentswrite comment
1 2 3 4 5
2 more votes to show rating
add to favorites
launch autoscroll
font size
0
reset
how to read this tab
guitar tuner
Autoscroll
slow
fast
+/-
esc
set tempo
stop
Help us to improve Ultimate-Guitar.com Take our survey!
×
Hola!!! primero ke nada deben afinar su guitarra,
todas la cuerdas son en la mismo entonacion excepto la 6ta o Mi (E).
en lugar de afinarla en Mi afinenla en RE, y listo!!!
Disfrutenla!!!


Cactus
     ^
     |----3---|    3    3    -----   |----3---|    3    3    -----
     H        Q    Q    Q    Q       H        Q    Q    Q    Q
E||-------------------------------|-------------------------------|
B||-------------------------------|-------------------------------|
G||--5-------------5--------------|--7-------------7--------------|
D||--7--------7---------7---------|--6--------6---------6---------|
A||-------------------------------|-------------------------------|
D||--7----------------------------|--6----------------------------|


                                  ^
  |----3---|    3    3    -----   |----3---|    |--3-|        13
  H        Q    Q    Q    Q       H        Q    Q    H        H
-------------------------------|----------------------------------|
-------------------------------|----------------------------------|
--7-------------7--------------|--2-------------2-----------------|
--5--------5---------5---------|--0--------0---------0------------|
-------------------------------|----------------------------------|
--5----------------------------|--0------------------0------------|


  ^
  |----3---|    3    3    -----   |----3---|    3    3    -----
  H        Q    Q    Q    Q       H        Q    Q    Q    Q
-------------------------------|-------------------------------|
-------------------------------|-------------------------------|
--5-------------5--------------|--7-------------7--------------|
--7--------7---------7---------|--6--------6---------6---------|
-------------------------------|-------------------------------|
--7----------------------------|--6----------------------------|


                                  ^
  |----3---|    3    3    -----   |----3---|    |--3-|        13
  H        Q    Q    Q    Q       H        Q    Q    H        H
-------------------------------|---------------------------------------|
-------------------------------|---------------------------------------|
--7-------------7--------------|--2-------------2----------------------|
--5--------5---------5---------|--0--------0---------0-----------------|
-------------------------------|---------------------------------------|
--5----------------------------|--0------------------0-----------------|


  ^
  |----3---|    3    3    -----   |----3---|    3    3    -----
  H        Q    Q    Q    Q       H        Q    Q    Q    Q
-------------------------------|-------------------------------|
-------------------------------|-------------------------------|
--5-------------5--------------|--7-------------7--------------|
--7--------7---------7---------|--6--------6---------6---------|
-------------------------------|-------------------------------|
--7----------------------------|--6----------------------------|


                                  ^
  |----3---|    3    3    -----   |----3---|    |--3-|        13
  H        Q    Q    Q    Q       H        Q    Q    H        H
-------------------------------|---------------------------------------|
-------------------------------|---------------------------------------|
--7-------------7--------------|--2-------------2----------------------|
--5--------5---------5---------|--0--------0---------0-----------------|
-------------------------------|---------------------------------------|
--5----------------------------|--0------------------0-----------------|


  ^
  |----3---|    3    3    -----   |----3---|    3    3    -----
  H        Q    Q    Q    Q       H        Q    Q    Q    Q
-------------------------------|-------------------------------|
-------------------------------|-------------------------------|
--5-------------5--------------|--7-------------7--------------|
--7--------7---------7---------|--6--------6---------6---------|
-------------------------------|-------------------------------|
--7----------------------------|--6----------------------------|


                                  ^
  |----3---|    3    3    -----   |----3---|    |--3-|        13
  H        Q    Q    Q    Q       H        Q    Q    H        H
-------------------------------|---------------------------------------|
-------------------------------|---------------------------------------|
--7-------------7--------------|--2-------------2----------------------|
--5--------5---------5---------|--0--------0---------0-----------------|
-------------------------------|---------------------------------------|
--5----------------------------|--0------------------0-----------------|


  ^                               ^
  |----3---|    3    3    -----   |----3---|    3    3    -----
  H        Q    Q    Q    Q       H        Q    Q    Q    Q
-------------------------------|-------------------------------|
--1-------------1--------------|--1-------------1--------------|
--2--------2---------2---------|--2--------2---------2---------|
-------------------------------|-------------------------------|
--0----------------------------|-------------------------------|
-------------------------------|--4----------------------------|


  ^                                    ^
  |----3---|    3    3    -----13      |----3---|    |--3-|        13
  H        Q    Q    Q    Q    Q       H        Q    Q    H        H
------------------------------------|---------------------------------|
--1-------------1-------------------|--0-------------0----------------|
--2--------2---------2--------------|--1--------1---------1-----------|
------------------------------------|---------------------------------|
------------------------------------|---------------------------------|
--3---------------------------------|--2------------------------------|


  ^                               ^
  |----3---|    3    3    -----   |----3---|    3    3    -----
  H        Q    Q    Q    Q       H        Q    Q    Q    Q
-------------------------------|-------------------------------|
--1-------------1--------------|--1-------------1--------------|
--2--------2---------2---------|--2--------2---------2---------|
-------------------------------|-------------------------------|
--0----------------------------|-------------------------------|
-------------------------------|--4----------------------------|


  ^                                    ^
  |----3---|    3    3    -----13      |----3---|    |--3-|        13
  H        Q    Q    Q    Q    Q       H        Q    Q    H        H
------------------------------------|---------------------------------|
--1-------------1-------------------|--0-------------0----------------|
--2--------2---------2--------------|--1--------1---------1-----------|
------------------------------------|---------------------------------|
------------------------------------|---------------------------------|
--3---------------------------------|--2------------------------------|


  ^
  |----3---|    3    3    -----   |----3---|    3    3    -----
  H        Q    Q    Q    Q       H        Q    Q    Q    Q
-------------------------------|-------------------------------|
-------------------------------|-------------------------------|
--5-------------5--------------|--7-------------7--------------|
--7--------7---------7---------|--6--------6---------6---------|
-------------------------------|-------------------------------|
--7----------------------------|--6----------------------------|


                                  ^
  |----3---|    3    3    -----   |----3---|    |--3-|        13
  H        Q    Q    Q    Q       H        Q    Q    H        H
-------------------------------|---------------------------------------|
-------------------------------|---------------------------------------|
--7-------------7--------------|--2-------------2----------------------|
--5--------5---------5---------|--0--------0---------0-----------------|
-------------------------------|---------------------------------------|
--5----------------------------|--0------------------0-----------------|


  ^
  |----3---|    3    3    -----   |----3---|    3    3    -----
  H        Q    Q    Q    Q       H        Q    Q    Q    Q
-------------------------------|-------------------------------|
-------------------------------|-------------------------------|
--5-------------5--------------|--7-------------7--------------|
--7--------7---------7---------|--6--------6---------6---------|
-------------------------------|-------------------------------|
--7----------------------------|--6----------------------------|


                                  ^
  |----3---|    3    3    -----   |----3---|    |--3-|        13
  H        Q    Q    Q    Q       H        Q    Q    H        H
-------------------------------|---------------------------------------|
-------------------------------|---------------------------------------|
--7-------------7--------------|--2-------------2----------------------|
--5--------5---------5---------|--0--------0---------0-----------------|
-------------------------------|---------------------------------------|
--5----------------------------|--0------------------0-----------------|


  ^                               ^
  |----3---|    3    3    -----   |----3---|    3    3    -----
  H        Q    Q    Q    Q       H        Q    Q    Q    Q
-------------------------------|-------------------------------|
--1-------------1--------------|--1-------------1--------------|
--2--------2---------2---------|--2--------2---------2---------|
-------------------------------|-------------------------------|
--0----------------------------|-------------------------------|
-------------------------------|--4----------------------------|


  ^                                    ^
  |----3---|    3    3    -----13      |----3---|    |--3-|        13
  H        Q    Q    Q    Q    Q       H        Q    Q    H        H
------------------------------------|--------------------------------|
--1-------------1-------------------|--0-------------0---------------|
--2--------2---------2--------------|--1--------1---------1----------|
------------------------------------|--------------------------------|
------------------------------------|--------------------------------|
--3---------------------------------|--2-----------------------------|


  ^                               ^
  |----3---|    3    3    -----   |----3---|    3    3    -----
  H        Q    Q    Q    Q       H        Q    Q    Q    Q
-------------------------------|-------------------------------|
--1-------------1--------------|--1-------------1--------------|
--2--------2---------2---------|--2--------2---------2---------|
-------------------------------|-------------------------------|
--0----------------------------|-------------------------------|
-------------------------------|--4----------------------------|


  ^                                    ^
  |----3---|    3    3    -----13      |----3---|    |--3-|        13
  H        Q    Q    Q    Q    Q       H        Q    Q    H        H
------------------------------------|-------------------------------|
--1-------------1-------------------|--0-------------0--------------|
--2--------2---------2--------------|--1--------1---------1---------|
------------------------------------|-------------------------------|
------------------------------------|-------------------------------|
--3---------------------------------|--2----------------------------|


  ^                               ^
  |----3---|    3    3    -----   |----3---|    3    3    -----
  H        Q    Q    Q    Q       H        Q    Q    Q    Q
-------------------------------|---------------------1---------|
--1-------------1--------------|--1-------------0--------------|
--2--------2---------2---------|--2--------2-------------------|
-------------------------------|-------------------------------|
--0----------------------------|--2----------------------------|
-------------------------------|-------------------------------|


  ^                                    ^
  |----3---|    3    3    -----13      |----3---|    |--3-|        13
  H        Q    Q    Q    Q    Q       H        Q    Q    H        H
------------------------------------|-------------------------------|
--1-------------1-------------------|-------------------------------|
--0-------------0-------------------|--2-------------2--------------|
--2--------2---------2--------------|--3--------3---------3---------|
--3---------------------------------|--3----------------------------|
------------------------------------|--3----------------------------|


  ^
  |----------3----------|    3       |----3----|    3    -------
  W                Q    Q    Q       Q    Q    Q    Q    Q.
--0-------------------------------|-----------------------------|
--0-------------------------------|-----------------------------|
--1---------------------1---------|-----------------------------|
--2----------------2---------2----|-----------------------------|
--2-------------------------------|--2-------------------2------|
--2-------------------------------|------------2----------------|


                                 ^
  13     13     13     13        |------3----------|         3      3
  Q.     Q.     Q.     Q.        W      Q     Q         Q      Q
------------------------------|--0------------------|----------------|
------------------------------|--0------------------|----------------|
---------1--------------------|--1------1----(1)----|--(1)----(1)----|
--2-------------2-------------|--2------2-----------|----------------|
-----------------------2------|--2------------------|----------------|
------------------------------|--2------------------|----------------|


       ^         ^
  |--3-|         13       ---------13
  Q    H         H        H        H
--------------------------------------------|
--------------------------------------------|
-------1s--------2--------------------------|
--------------------------------------------|
--------------------------------------------|
--------------------------------------------|


  13               ------------------- 3                 3
  W                 W                  W                 Q
--------------------------------------------------------------|
--------------------------------------------------------------|
-------------------(2)----------------(2)---------------------|
--------------------------------------------------------------|
--------------------------------------------------------------|
--------------------------------------------------------------|


  13               13               13
  W                W                W
--0----------------0----------------0----------------||
--1----------------1----------------1----------------||
--2----------------2----------------2----------------||
--2----------------2----------------2----------------||
--0----------------0----------------0----------------||
-----------------------------------------------------||
Suggest correction
Give kudos to tab author, rate the tab!
1 2 3 4 5
comments
print report bad tab
guest
You may want to rate the tab now too:
select rating
Wanna post a correction for this tab? Suggest correction