Oops, an error
Loading. Please wait.

Fantasma Tab

version 1
version 1

Whole song

112 views 3 this week
no commentswrite comment
1 2 3 4 5
3 more votes to show rating
add to favorites
launch autoscroll
font size
0
reset
how to read this tab
guitar tuner
Autoscroll
slow
fast
+/-
esc
set tempo
stop
Help us to improve Ultimate-Guitar.com Take our survey!
×
*Capo en el 1er traste

Intro:
                    (Am)
1 |------------------------------1-1-----|
2 |----------2-----2-----------2-----2---|
3 |-------3----------------3-------------|   (x 6)
4 |----3--------3-------3----------------|
5 |--------------------------------------|
6 |--------------------------------------|

                                    (Am)
1 |------------------------------1-1----------------------------------1-1-----|
2 |----------2-----2----------2-------2------------2-----2---------2-------2--|
3 |-------3----------------3--------------------3---------------3-------------|
4 |----3--------3-------3-------------------3---------3------3----------------|
5 |---------------------------------------------------------------------------|
6 |---------------------------------------------------------------------------|
                Mejor quedarse quieto                 y esperar
 
                                    (Am)
1 |-------------------------------------------------------------------1-1-----|
2 |----------2-----2----------2--------------------2-----2---------2-------2--|
3 |-------3----------------3--------------------3---------------3-------------|
4 |----3--------3-------3-------------------3---------3------3----------------|
5 |---------------------------------------------------------------------------|
6 |---------------------------------------------------------------------------|
                Por favor perdona                     mi actitud

                                    (Am)
1 |------------------------------1------------------------------------1-1-----|
2 |----------2-----2----------2--------------------2-----2---------2-------2--|
3 |-------3----------------3--------------------3---------------3-------------|
4 |----3--------3-------3-------------------3---------3------3----------------|
5 |---------------------------------------------------------------------------|
6 |---------------------------------------------------------------------------|
                En caída libre                        no soy libre

                         (Am)
1 |-------------------------------------------------|
2 |----------2----2----------2----2---------2----2--|
3 |-------3---------------3--------------3----------|
4 |----3-------3-------3-------3------3-------3-----|
5 |-------------------------------------------------|
6 |-------------------------------------------------|
               Nubazón         nubazón,


     SIm  DO#m
pasará

SIm  DO#m   (x2)

SIm
La hondonada nos

   (Sim)(Am)
1 |--3---------------1-1-----------------------------------------------|
2 |--4--2---------2-------2---------2-----2--2-----2-------------------|
3 |--5---------3-------------------------------------------------------|
4 |--5------3-------------------3------3--------3-----3----------------|
5 |--3-----------------------------------------------------------------|
6 |--1-----------------------------------------------------------------|
  dejó sin caricias

SIm                     DO#m
Y varias noches sin poder    dormir

                                    (Am)
1 |------------------------------1-1----------------------------------------|
2 |----------2-----2----------2-------2------------2-----2---------2--------|
3 |-------3----------------3--------------------3---------------3-----------|
4 |----3--------3-------3-------------------3---------3------3--------------|
5 |-------------------------------------------------------------------------|
6 |-------------------------------------------------------------------------|

        (SIm)             (DOm)
1 |-------------3----------------4-----|
2 |----------4----------------5--------|
3 |-------5----------------6-----------|    (x 2)
4 |----5----------------6--------------|
5 |------------------------------------|
6 |------------------------------------|

1 |----------------------------------------|
2 |----------------------------------------|
3 |----------------------------------------|           
4 |---4---3--------------------4---3-------|
5 |-----------4------------------------4---|
6 |----------------------------------------|
          Fatalismo inútil         ignorar temores

   (Sim)(Am)
1 |--3---------------1-1------3----------------------|
2 |--4------------2-------2---4-------2------2-------|
3 |--5---------3--------------5----------------------|
4 |--5------3-----------------5---3------3-----------|
5 |--3------------------------3----------------------|
6 |--1------------------------1----------------------|
                                         Me muero

SIm                 DO#m  SIm  DO#m
por creer que es posible

           SIm  DO#m
Seamos amigos

SIm                                             
   O la vida

     (Sim)(Am)

 1 |--3---------------1-1------3------------------------------|
 2 |--4---2--------2-------2---4---2-----2--------2--2--2--1--|
 3 |--5---------3--------------5---------------3--------------|
 4 |--5------3-----------------5------3-----3-----------------|
 5 |--3------------------------3------------------------------|
 6 |--1------------------------1------------------------------|
sentirá aún más frío   

SIm                  DO#m
Y el fantasma no podrá   dormir
Suggest correction
Give kudos to tab author, rate the tab!
1 2 3 4 5
comments
print report bad tab
guest
You may want to rate the tab now too:
select rating
Wanna post a correction for this tab? Suggest correction