Oops, an error
Loading. Please wait.

Fantasma Tab

version 2
version 2

Whole song

76 views 6 this week
no commentswrite comment
1 2 3 4 5
3 more votes to show rating
add to favorites
launch autoscroll
font size
0
reset
how to read this tab
guitar tuner
Autoscroll
slow
fast
+/-
esc
set tempo
stop
Help us to improve Ultimate-Guitar.com Take our survey!
×
Intro:
tab1
1 |-------------------------------0---------|
2 |----------2-----------------2---------3--|
3 |-------2--------2---2----2---------2-----|
4 |----4-------4-4---4---1------------------|x6
5 |-----------------------------------------|
6 |-----------------------------------------|


               Mejor  quedarse   quietoo
                y    espeeeraaaaaaar
1 |-------------------------------0---------|
2 |----------2-----------------2---------3--|
3 |-------2--------2---2----2---------2-----|
4 |----4-------4-4---4----------------------|
5 |-----------------------------------------|
6 |-----------------------------------------|


               por    favooor    perdonaa
               mi actitud
               en caiida libre
               no soy libre
               nubazon, nubazon
1 |------------------------------------------|
2 |----------2-----------------2-------------|
3 |-------2--------2---2----2---------3----3-|
4 |----4-------4-4---4---4-------4-4----4----|
5 |------------------------------------------|
6 |------------------------------------------|


pasaraaa
1|-----0----------0-------2-----2-------0----------------0-----2----2----|
2|-----2---2-----------2----------------2-------2--------2----2----------|
3|-----2------2-2----1-------1-----1---------2-----1---------1----1----1-|
4|-----0-----------------------------------------------------------------|
5|-----------------------------------------------------------------------|
6|-----------------------------------------------------------------------|


                                    laaa ondonada nos dejo sin caricias
1 |---2-----2------2------4-------2---2--------4-----------------------|
2 |---3-----------------3-------3---3------2---------------------------|
3 |---2--2----2-2-----2-----------------2------------------------------|
4 |---0----------------------------------------------------------------|
5 |--------------------------------------------------------------------|
6 |--------------------------------------------------------------------|


fatalismo inutil ignorar temores
(suena la otra guitarra)


                      me muero por creer
1 |-----------0---------------------------------------------------|
2 |---------2------3-------2--2--2----2---2-----------------------|
3 |-2-2---2-----2--------2----------2-----------------------------|
4 |-----1-------------------------1-------------------------------|
5 |---------------------------------------------------------------|
6 |---------------------------------------------------------------|
Suggest correction
Give kudos to tab author, rate the tab!
1 2 3 4 5
comments
print report bad tab
guest
You may want to rate the tab now too:
select rating
Wanna post a correction for this tab? Suggest correction