Oops, an error
Loading. Please wait.

Karaoke Tab

version 1
version 1

Whole song

Interactive

388 views 1 this week
no commentswrite comment
1 2 3 4 5
3 more votes to show rating
add to favorites
launch autoscroll
font size
0
reset
how to read this tab
guitar tuner
×
Best way to learn
"Karaoke"
Autoscroll
slow
fast
+/-
esc
set tempo
stop
A continuación les daré las tablaturas de esta cancion,
el cual me parece que está
muy bien diseñada por este talentoso artista llamado Gustavo Cerati,
bueno aqui los dejo...

INTRO:
 Guitarra 1

 1------1--------1-------------/ x4
 2----2-----(4)----1------(4)--/ x4
 3--1-----3----------1-3-------/ x4
 4-----------------------------/ x4
 5-----------------------------/ x4
 6-----------------------------/ x4

 Despues de 4 veces la guitarra 1 se mete la Guitarra 2
 acompañando a la primera

 Guitarra 2

 1------6--------/ x3    1--8-6-------/
 2----6---8------/ x3    2------6-8---/
 3--8------------/ x3    3------------/
 4---------------/       4------------/
 5---------------/       5------------/
 6---------------/       6------------/

 El intro va acompañado por las notas C# y D#

A continuacion le voy a dar los tab que acompañan al F# y al A#m
es mas o menos asi:

F#
               en otras estrofas
1-------------/-------------------/
2-------------/----2---2----------/
3----1----1---/--3---3------------/
4--4----4-----/-------------------/
5-------------/-------------------/
6-------------/-------------------/

 Ya no me necesitas...

A#m
               en otras estrofas
1-------------/------------------/
2-------------/----2-----2-------/
3----1---1----/--3-----3---------/
4--3---3------/------3-----------/
5-------------/------------------/
6-------------/------------------/

 es lo mejor...

Aqui estan las notas bases de la canción:


F#         A#m       F#      A#m
  Ya no me necesitas,  es lo mejor
F#         A#m     Fm
  eras alguien a quien yo solia conocer
F#         A#m   F#   A#m
  fue muy simple   despegar
F#         A#m              Fm
  solo un corto tiempo y te buscaste un nuevo corazon
F#maj7        G7(b5)
  Ahora tienes      tu propio show
G#/G#6*               D#/D#4*
  como un rey vengador,       vengador

INTRO (Guitarra 1)

1--11-xx-11/8-8-8-xx-8-8-8-8---/
2--11-xx-11/8-8-8-xx-8-8-8-8---/
3------------------------------/
4------------------------------/
5------------------------------/
6------------------------------/


F#        A#m F#           A#m
  No te alcanza con improvisar
F#        A#m        Fm
  el descaro baby es parte de la diversion
F#maj7       G7(b5)
  Ahora vamos     a ver tu show
G#/G#6*                   D#/D#4*
  en el cuarto de un hotel        (frente al mar)
F#maj7          G7(b5)
  lee mis labios      karaoke
G#/G#6*                   D#/D#4*
  como un rey convenceme           convenceme

INTRO

1------------------1---1---1----/
2----4---4---1---4---4---4---4--/
3--1---3---3--------------------/
4-------------------------------/
5-------------------------------/
6-------------------------------/

convenceme, covenceme...


*las notas q tienen el asterisco quiere decir que las 2 notas
 se repiten en el mismo tiempo de la misma.

Notas:

  F#maj7            G7(b5)            G#            G#6

1--1-------/     1--1--------/     1--xx-----/   1--xx-----/
2--2-------/     2--2--------/     2--4------/   2--6------/
3--3-------/     3--0--------/     3--5------/   3--5------/
4--4-------/     4--xx-------/     4--6------/   4--6------/
5--xx------/     5--xx-------/     5--xx-----/   5--xx-----/
6--xx------/     6--xx-------/     6--xx-----/   6--xx-----/

  D#                 D#4

1--xx------/     1--xx-------/
2--8-------/     2--9--------/
3--8-------/     3--8--------/
4--8-------/     4--8--------/
5--xx------/     5--xx-------/
6--xx------/     6--xx-------/

No todos los lujos de la canción estan puestos aqui,
sin embargo aqui les dejo una idea
para que puedan imaginarse lo demas, espero y les guste
Suggest correction
Give kudos to tab author, rate the tab!
1 2 3 4 5
comments
print report bad tab
guest
You may want to rate the tab now too:
select rating
Wanna post a correction for this tab? Suggest correction