Oops, an error
Loading. Please wait.

Medium Tab

version 1
version 1

Whole song

Interactive

397 views 3 this week
no commentswrite comment
1 2 3 4 5
3 more votes to show rating
add to favorites
×
Save as Personal and add changes to this tab that will be seen only by you. Learn more ›
×
You can save this tab as Personal to edit and correct it or add notes. All changes will be seen only by you. Learn more »
save as personal
new!
launch autoscroll
font size
0
reset
how to read this tab
guitar tuner
Autoscroll
slow
fast
+/-
esc
set tempo
stop
Ahí les va esta canción de Cerati muy buna por cierto?
espero y les guste tanto como a mi?
dedicada ala banda de simbiosis.

Comienza?
E-------------------
B-------------------
G-2h3h3h3-2-3-2-----  (por las veces que sean necesarias)
D-------------------
A-------------------
E-------------------

Entra otra guitarra?

E------------------
B--------3-------3-         (por las veces indicadas
G-33-2-0---33-2-0--                en la canción)

Entre versos
      DO                   FA
E-----------       E---------3-------
B-------5---       B-----------1---1-
G---------5- x2    G-----2-------2---  x2
D----5------       D-----------------
A--3--------       A---3---3---------
E-----------       E-1---------------

Pude desaparecer, pude decir que no?
Pero el fin de la pasión es que lo oculto se vea?
 (Escuchen los cambios)
      RE                DO
E--------          E------
B-7-8----          B-5-6--
G-7------          G-5----     vine avisarte que...
D-7------          D-5----
A-5------          A-3----
E--------          E------

En todos los versos es igual...
DO                   (esto hace LA guitarra)
Uh uh uh  E-10-10-10-10-10-10
          B------------------8-8-8-8-8-8
DO
Uh uh uh  [igual]
RE - DO

Igual entre versos...

Solo
E-------------------------10-12
B---3/10-10-8-8-88-------88------2/77-88-1010

E--------10-8-7------
B-7-8-10-------8-----
G---------------7-9~-

E--------------------5-
B------------3-8-5-3~--  x4
G-3-2-3-2-3-5----------

Escuchen los cambios c/u es de 4 tiempos
   DO    LA#    FA    LA#
E----------------------
B-2/17----15----10----3   (poseídos, por el mas allá)
G-2/17----15----10----3 x las veces necesarias
D-2/17----15----10----3
A---15----13----8-----1
E----------------------

Al final este punteo
E-15h16h16h16-10h11h11h11
B------------------------10h11h11h11
G-----------------------------------9h10h10h10

dedicada amis hermanos que me
soportaron mientras saque la cancion jeje!
Suggest correction
Give kudos to tab author, rate the tab!
1 2 3 4 5
comments
print report bad tab
guest
Wanna post a correction for this tab? Suggest correction