Oops, an error
Loading. Please wait.

Medium Tab

version 2
version 2

Whole song

Interactive

112 views 3 this week
no commentswrite comment
1 2 3 4 5
1 last vote to show rating
add to favorites
launch autoscroll
font size
0
reset
how to read this tab
guitar tuner
×
Best way to learn
"Medium"
Autoscroll
slow
fast
+/-
esc
set tempo
stop
Traten de usar delay, chorus y ojalá vibrato y toquen junto al tema.
Dedico este temazo (mi favorito de Ahí Vamos) para todos los
fanáticos por siempre de Gustavo y Soda en especial para mi amigo
de Colombia Daniel Acuña... Aguante Gustavo irá!!!

El intro de la primera guitarra va con hummer
(remitirse al curso de esta página):

e-------------------
B-------------------
G---2(h)3----------- x las veces que sea necesario mientras comience
D------------------- el tema
A-------------------
E-------------------

La segunda guitarra parte es con hummer también:

e-------------------
B---10(h)11---------
G-------------------
D-------------------
A-------------------
E-------------------

Al comenzar el rasgueo hace una nota algo rara entre
la tónica de DO y SOL y que la repite casi toda la canción, es así:

e-------------------
B-------------------
G-------------------   Fig.1
D---2---------------
A-----3-------------
E-----3-------------

     Fig.1                  Fig.1
        Pude desaparecer
                      FA
        pude decir que no
     pero el fin de la pasión
                      Fig.1    RE/*
    es que lo oculto se vea
         RE    Fig.1
        vine a avisarte
Fig.1                     Fig.1
    Chica con ojos de ayer
                      FA
        sé que vibras también
         LA extraña sensación
                          Fig.1    Hooo? RE/*
   de no pertenecer a este mundo
RE         Fig.1
como en un trance

e-------10----------
B---8---------------
G-----9------------- Fig.2 En esta posición se le debe subir un tono
D------------------- como Bend, mientras rasgueamos las 3 cuerdas.
A-------------------
E-------------------

e---8---------------
B---8---------------
G-----9------------- Fig.3
D-------------------
A-------------------
E-------------------

Uuuuuu? Fig.2/Fig.3 Uuuuu? Fig.2/fig3
Uuuuu? RE/*    Fig.1

Fig.1                  Fig.1
   Ya tantas veces morí
              FA
nunca me pude ir
el arte de vivir
                   Fig.1      RE/*
por encima del abismo
RE         Fig.1
estoy condenado a errar

Uuuuuu? Fig.2/Fig.3 Uuuuu? Fig.2/fig3
Uuuuu? RE/*    Fig.1 (Toda esta secuencia se repite 2 veces)

Solo 1

e------7---10---
B---10---8------
G---------------
D---------------
A---------------
E---------------

e-----7---10-12--
B--10---8--------
G----------------
D----------------
A----------------
E----------------

e--------------------10-8-7--
B------8-8-8-10-8-10--------8
G---11-----------------------
D----------------------------
A----------------------------
E----------------------------

Solo 2

e-------------------3-----
B-------------3-3s5---5-2-
G--3-3-2-3-5-------------- Se repite varias veces
D-------------------------
A-------------------------
E-------------------------

Luego del segundo punteo viene esta parte,
la que se repite varias veces, hasta ?Poseídos por el?? inclusive.

e----12-------------   e----10-------------   e---8-------------
B------13-----------   B-------11----------   B-------10--------
G----12-------------   G----10-------------   G-------10--------
D-------------------   D-------------------   D-----------------
A-------------------   A-------------------   A-----------------
E-------------------   E-------------------   E-----------------

e--1----------------
B------3------------
G------3------------
D-------------------
A-------------------
E-------------------

Poseídos por el más allá
poseídos por el más allá

En el último solo, la idea es tocar cada nota y jugar
con la palanca del trémolo suavemente para que quede
sondando como lo hace Gustavo? Sino cuentan con micro
o con palanca, como generalmente es el modelo Les Paul,
por ejemplo, deben hacer sonar la nota que indico
y de inmediato posicionarse en el espacio contiguo
y volver y así sucesivamente.

e-15/17---10/12-----------------
B-----------------10/11---------
G-------------------------9/10--
D-------------------------------
A-------------------------------
E-------------------------------

Cuando más arriba pongo RE/* es porque cuando
toca esa nota, hace un cambio en el sonido
pues pone el dedo meñique en la cuerda e SOL:

e---2--*3*----------
B-----3-------------
G---2---------------
D-------------------
A-------------------
E-------------------

En caso de dudas o correcciones: ariosoben@
Desde Chile me despido, Ariel Osorio.
Suggest correction
Give kudos to tab author, rate the tab!
1 2 3 4 5
comments
print report bad tab
guest
You may want to rate the tab now too:
select rating
Wanna post a correction for this tab? Suggest correction