Oops, an error
Loading. Please wait.

Numeral Tab

157 views 3 this week
no commentswrite comment
1 2 3 4 5
3 more votes to show rating
add to favorites
×
Save as Personal and add changes to this tab that will be seen only by you. Learn more ›
×
You can save this tab as Personal to edit and correct it or add notes. All changes will be seen only by you. Learn more »
save as personal
new!
launch autoscroll
font size
0
reset
how to read this tab
guitar tuner
Autoscroll
slow
fast
+/-
esc
set tempo
stop
este es arpejio q hace la 2º guitarra
espero les guste
esta cancion es facil d tocar solo deves ir viendo los
acordes q van y el arpejio q lleva ;D

ESTA CANCION SE LA DEDICO A MI AMOR ABIGAIL    T   AMOOOOO

NOTA: los acordes marcados con un *  se tocan con un rasgueo hacia abajo


ACORDES:

             acorde    D

E|----------------------------------|
B|---------3----------3-------------|
G|-------2---2----------2---2-------|X2
D|-----4-------4---4------4---------|
A|---5-----------5------------------|
E|----------------------------------|

             acorde    Am
E|----------------------------------|
B|---------1----------1-------------|
G|-------2---2-----------2----2-----|
D|-----2-------2---2--------2-------|X2
A|---0-----------0------------------|
E|----------------------------------|

             acorde     C

E----------------------------------|
B---------1-----------1------------|
G-------0---0-----------0---0------|
D-----2-------2---2-------2--------|X2
A---3-----------3------------------|
E----------------------------------|

            acorde   A#

E|---------------------------------|
B|---------------------------------|
G|---------7----------7------------|
D|-------8---8------------8---8----|X2
A|-----8-------8---8--------8------|
E|---6-----------6-----------------|

           acorde    G#

E|---------------------------------|
B|---------------------------------|
G|---------5----------5------------|
D|-------6---6----------6---6------|X2
A|-----6-------6---6------6--------|
E|---4-----------4-----------------|

           acorde   G

E|---------------------------------|
B|---------------------------------|
G|---------4----------4------------|
D|-------5---5----------5---5------|
A|-----5-------5---5------5--------|X2
E|---3-----------3-----------------|


Intro:
D  Am  C  A#  G#  G


D                   Am
1 esta solo, y se entera,
D              Am
2 diferentes maneras,
C
3 veces llamo y respondes,
  A#     G#        G
y suena, suena el acorde.


D                   Am
4 elementos, más el viento,
D                      Am
5 estrellas, el que prefiero,
C
6 veces el diablo escondido,
      A#          G#       G
en el lido, en el lido del tiempo.


EN ESTA PARTE EL ARPEJIO ES DIFERENTE


     acorde  A#                    acorde  D#

E|--------------------|       E|--------------------------|
B|--------------------|       B|--------------------------|
G|---------7----------|       G|------------12------------|
D|-------8---8--------|       D|---------13----13---------|
A|-----8-------8------|       A|------13----------13------|
E|---6----------------|       E|---11---------------------|


     acorde  C                     acore  G

E|----------------------|     E|-------------------------|
B|----------------------|     B|-------------------------|
G|-----------9----------|     G|---------4---------------|
D|--------10---10-------|     D|-------5---5-------------|
A|-----10---------10----|     A|-----5-------5-----------|
E|---8------------------|     E|---3---------------------|


      acorde  G#                    acorde   D

E|-----------------------|    E|----------------------------|
B|-----------------------|    B|----------------------------|
G|---------5-------------|    G|------------11--------------|
D|-------6---6-----------|    D|---------12----12-----------|
A|-----6-------6---------|    A|------12----------12--------|
E|---4-------------------|    E|---10-----------------------|


A#  D#  C      G
7 rayos misteriosos,
A#    D#       C
8 horizontes infinitos,
A#   D#    C       G#       D
9 es real, casi disfruto chocar.


A#        C      G
Cuento hasta 10,
       D       A#        C
Y te escondes, Dioses creados
G      D#
Con 10 nombres,
A#      C
Alfa y Omega,
D#*      F*         G*
Todo principio y final.


D        Am
11 cumpleaños,
D                   Am
12 la espuma, en tu año,
C
13 no existe la suerte,
    A#           G#         G
los números, los números no mienten.


A#    D#
1 es así,
C    G
2 distancias,
A#    D#
3 armonizan
C        A#
4 ruedan más
        D#
5 es la magia,
C       G#       D
6 antes de descansar,
A#  C
7 colores,
G  D
8 pasos,
A#   C
Nube 9,
G       D#
10 contiene
A#    C    D#   F        G
11, o 12 o 13 paré de contar.
Suggest correction
Give kudos to tab author, rate the tab!
1 2 3 4 5
comments
print report bad tab
guest
Wanna post a correction for this tab? Suggest correction