Oops, an error
Loading. Please wait.

Paseo Inmoral Tab

166 views 1 this week
no commentswrite comment
1 2 3 4 5
3 more votes to show rating
add to favorites
launch autoscroll
font size
0
reset
how to read this tab
guitar tuner
Autoscroll
slow
fast
+/-
esc
set tempo
stop
Help us to improve Ultimate-Guitar.com Take our survey!
×
paseo inmoral-gustavo cerati

INTRO:

e/-------------------------------------------
b/-------------------------------------------
g/---------------7------------------7---------
d/------6-----7------7----6----7-------------
a/----7----7------------7---7----------------
E/-------------------------------------------

........comenze_____.......................
e/-------------------------------------------
b/-------------------------------------------
g/-------------------------------------------
d/--------6-----6-----6-------------------------
a/-----7-----7-----7-----7-----------------------
E/-------------------------------------------

.......a girar como un reloj........
e/----2---------------------------------------
b/----2---------------------------------------
g/----2---------------------------------------
d/----4---------------------------------------
a/----4---------------------------------------
E/----2---------------------------------------

...........hoy el oro esta en mi piel...
e/-------------------------------------------
b/-----7------7-------5-------7---------------
g/-----7------7-------7-------7---------------
d/-----7------7-------7-------7---------------
a/-----5------5-------5-------5---------------
E/-------------------------------------------


e/-------------------------------------------
b/-------------------------------------------
g/---------------7-----------------7----------
d/------6-----7------7----6----7------7-------
a/----7----7------------7---7----------------
E/-------------------------------------------

e/-------------------------------------------
b/-------------------------------------------
g/---------------7---------------------------
d/------6-----7------7----6----7-------------
a/----7----7------------7---7----------------
E/-------------------------------------------

  ......desperte______...........
e/--------------------------------2-----------
b/--------------------------------2-----------
g/--------------------------------2-----------
d/--------6-----6-----6-----------4--------------
a/-----7-----7-----7-----7--------4---------------
E/--------------------------------2-----------


 ..........puedo ovbiarlas y esparar.....
e/-------------------------------------------
b/-----7------7-------5-------7---------------
g/-----7------7-------7-------7---------------
d/-----7------7-------7-------7---------------
a/-----5------5-------5-------5---------------
E/-------------------------------------------

e/-------------------------------------------
b/-------------------------------------------
g/---------------7-----------------7----------
d/------6-----7------7----6----7-------------
a/----7----7------------7---7----------------
E/-------------------------------------------

coro:

e/-----------------------5--4--2-------------
b/----4--4--4--4---2-------------------------
g/----4--4--4--4---2-------------------------
d/----4--4--4--4---2-------------------------
a/-------------------------------------------
E/-------------------------------------------

e/-----------------------5--4--2-------------
b/----4--4--4--4---2-------------------------
g/----4--4--4--4---2-------------------------
d/----4--4--4--4---2-------------------------
a/-------------------------------------------
E/-------------------------------------------

e/-----------------------5--4--2-------------
b/----4--4--4--4---2-------------------------
g/----4--4--4--4---2-------------------------
d/----4--4--4--4---2-------------------------
a/-------------------------------------------
E/-------------------------------------------

e/-------------------------------------------
b/-------------------------------------------
g/---------------7-----------------7----------
d/------6-----7------7----6----7-------------
a/----7----7------------7---7----------------
E/-------------------------------------------

e/-----------------------5--4--2-------------
b/----4--4--4--4---2-------------------------
g/----4--4--4--4---2-------------------------
d/----4--4--4--4---2-------------------------
a/-------------------------------------------
E/-------------------------------------------

e/-----------------------5--4--2-------------
b/----4--4--4--4---2-------------------------
g/----4--4--4--4---2-------------------------
d/----4--4--4--4---2-------------------------
a/-------------------------------------------
E/-------------------------------------------

e/-----------------------5--4--2-------------
b/----4--4--4--4---2-------------------------
g/----4--4--4--4---2-------------------------
d/----4--4--4--4---2-------------------------
a/-------------------------------------------
E/-------------------------------------------

e/-------------------------------------------
b/-------------------------------------------
g/---------------7-----------------7----------
d/------6-----7------7----6----7-------------
a/----7----7------------7---7----------------
E/------------------------------------------

se repite todo

puente:
e/-------------------------------------------
b/-------------------------------------------
g/---------------7-----------------7----------
d/------6-----7------7----6----7-------------
a/----7----7------------7---7----------------
E/------------------------------------------

e/-------------------------------------------
b/-------------------------------------------
g/---------------7------------------7---------
d/------6-----7------7----6----7-------------
a/----7----7------------7---7----------------
E/-------------------------------------------

........te cree_____.......................
e/--------------------------------------------
b/------------------------------7-------------
g/------------------------------7-------------
d/--------6-----6-----6---------7-------------
a/-----7-----7-----7-----7------5-------------
E/-------------------------------------------

..un gran inventor
e/------------------------------5---7----------
b/----------------------------5---------------
g/-----------------------6-7-------------------
d/---------------4--6--7------------------------
a/----------4--7-------------------------------
E/-------------------------------------------

e/----7--5-------------------------------------
b/----------5-7--5------------------------------
g/------------------6-7-6-----------------------
d/-------------------------7------------------
a/-----------------------------4--------------
E/-------------------------------------------

e/------------------------------5---7----------
b/----------------------------5---------------
g/-----------------------6-7-------------------
d/---------------4--6--7------------------------
a/----------4--7-------------------------------
E/-------------------------------------------

e/----7--5-------------------------------------
b/----------5-7--5------------------------------
g/------------------6-7-6-----------------------
d/-------------------------7------------------
a/-----------------------------4--------------
E/-------------------------------------------

e/-------------------------------------------
b/-------------------------------------------
g/---------------7-----------------7----------
d/------6-----7------7----6----7-------------
a/----7----7------------7---7----------------
E/------------------------------------------

e/-------------------------------------------
b/-------------------------------------------
g/---------------7------------------7---------
d/------6-----7------7----6----7-------------
a/----7----7------------7---7----------------
E/-------------------------------------------

e/------------------------------5---7----------
b/----------------------------5---------------
g/-----------------------6-7-------------------
d/---------------4--6--7------------------------
a/----------4--7-------------------------------
E/-------------------------------------------
............la direccion.........
e/----7--5-------------------------------------
b/----------5-7--5------------------------------
g/------------------6-7-6-----------------------
d/-------------------------7------------------
a/-----------------------------4--------------
E/-------------------------------------------

para volver.....al origen que al principio..fue
e/-------------------------------------------
b/-----7---------------------------2-----------
g/-----7---------------------------2-----------
d/-----7---------------------------2-----------
a/-----5---------------------------0-----------
E/-------------------------------------------

e/-------------------------------------------
b/-------------------------------------------
g/-------------------------------------------
d/-------------------------------------------
a/---0-0--2-2--4-5---------------------------
E/-------------------------------------------
.................................paseo inmoral
e/-------------------------------------------
b/------7--7-7--5-5-5--7-7--5-5--------------
g/------7--7-7--6-6-6--7-7--6-6--------------
d/------7--7-7--6-6-6--7-7--6-6--------------
a/------5--5-5--4-4-4--5-5--4-4--------------
E/-------------------------------------------

yagseniwre
Suggest correction
Give kudos to tab author, rate the tab!
1 2 3 4 5
comments
print report bad tab
guest
You may want to rate the tab now too:
select rating
Wanna post a correction for this tab? Suggest correction