Oops, an error
Loading. Please wait.

Profugos Tab

517 views 9 this week
no commentswrite comment
1 2 3 4 5
3 more votes to show rating
add to favorites
launch autoscroll
font size
0
reset
how to read this tab
guitar tuner
Autoscroll
slow
fast
+/-
esc
set tempo
stop
Intro:

|-----------------
|-----------------
|-----------------  X4
|-----------------
|------5--2--4---
|--0-0------------

|-----------------
|-----------------
|-----------------  X2
|-----------------
|------5--2--4--2-
|--0-0------------

|-----------------
|-----------------
|-----------------  X2   y se vuelve a repetir varias veces
|-----5-2-4-2-----
|-0-0-------------
|-----------------

|-----------------------5--5-5-5
|---10------------------7--5-8-7
|----0------------------7--7-7-5
|----9------------------7--7-7-5
|---10------------------5--5-7-5
|-----------------------5--5-7-5
Somos cómplices los dos

|-----------------
|-----10------------
|-----0------------
|-----9------------  X4
|-----10------------
|-----------------

|----------------------------------7-7
|----------------------------------7-7
|----------------------------------7-7
|-------------------------------9--9-9 (hace un punteo con las cuerdas
|-------------------------------9--9-9  4 y 5)
|-------------------------------7--7-7
Al menos se que huyo por que amo

Y se repiten los mismos acordes
|------------------------------------------|-----------------|
|------------------------------------------|------------------
|------------------11-11-11-11---------|---------------11-11-11-11
|-----------9-9-9-9-----------9-9-9-9-|--------9-9-9-9-----------9-9-9-7
|10-10-10-10--------------------------|10-10-10-10--------
|------------------------------------------|---------------------------
Pero ese ruido banco, es una alarma en mis oidos

D        Am      Em        Bm (van con cejilla)
No seas tan cruel, no busques más pretextos

no seas tan cruel, siempre seremos profugos los dos
|-----------------------------------------------------------
|----7---7-7---------7---7-7-------------------------------------
|-----9-9-9---((X2)---9-9-9-9-------------------------------------------
|------9---9------------9-----7---------------------------------
|-----------------------------------------------------------
|-----------------------------------------------------------


Despúes vienecuando dice "no tenemos donde ir"

usa estos acordes
E|-16
B1-15 despues la misma posición pero en el traste 9
G|-16
D|-14

|----10-10-10-10-10-10-10
|----10-8--7--x--x--7--8- se repite las veces que sea necesario
|-------------7--9------------------------
|---------------------------------------
|---------------------------------------
|---------------------------------------


El solo aun no lo tengo

Al final son los mismos acorde que la versión de Soda Stereo,
espero que le guste adiós!!!
Nota:
El intro va con chorus, reverby distorción(solo en intro)
lo demás solo va con distorción
Suggest correction
Give kudos to tab author, rate the tab!
1 2 3 4 5
comments
print report bad tab
guest
Wanna post a correction for this tab? Suggest correction