Oops, an error
Loading. Please wait.

Tabu Tab

version 1
version 1

Whole song

Interactive

129 views 1 this week
no commentswrite comment
1 2 3 4 5
3 more votes to show rating
add to favorites
launch autoscroll
font size
0
reset
how to read this tab
guitar tuner
×
Best way to learn
"Tabu"
Autoscroll
slow
fast
+/-
esc
set tempo
stop
comienzan tambores y secuencias de intro...

este fraseo es el fondo de todos los versos y es además el intro,
por lo cual se toca la mayoría del tema:

E|-6-6-6----6-6-6-----6-6-6---6-6-6-------------6-6-6-|
A|------4-6-------4-6------4-6-----4-6-4-4-4-4-6------|
D|----------------------------------------------------|

(no estoy 100% seguro, porque no tengo mi guitarra a la mano,
pero creo que si es así)

después comienza con los tonos D#m y G#m

luego de verso-coro-verso-coro viene el solo...

e|------------------------------------------------|
B|-----------------------8------------------------|
G|---9~9~9~9~---------/9---9----------------------|

e|--------------------------------------------------|
B|---9~~9~99-9-9~-10--10-10----10-8~~~~-------------|
G|--------------------------------------------------|

e|------------------------------------------------------------------|
B|----------------------------------------------------------------9~|
G|-10p8------10p8------10p8------10p8------10p8------10p8------10---|
D|------11p8------11p8------11p8------11p8------11p8------11p8------|

e|-------------------------9-8p6-----------|
B|---9-8p6---9-8p6---9-8p6--------9p6------|
G|-------------------------------------9p6-|

después de eso se tocan muy rápido D#m y Fm y se vuelve al coro

en escencia eso es lo más destacable del tema (que es muy bueno)

paf, se acabó.
Suggest correction
Give kudos to tab author, rate the tab!
1 2 3 4 5
comments
print report bad tab
guest
You may want to rate the tab now too:
select rating
Wanna post a correction for this tab? Suggest correction