Oops, an error
Loading. Please wait.

Tabu Tab

version 2
version 2

Whole song

Interactive

213 views 9 this week
no commentswrite comment
1 2 3 4 5
3 more votes to show rating
add to favorites
launch autoscroll
font size
0
reset
how to read this tab
guitar tuner
×
Best way to learn
"Tabu"
Autoscroll
slow
fast
+/-
esc
set tempo
stop
Esta canción esta muy grosa la letra esta muy buena..


Intro:
D------------------------------------------|
A--------4-6--------4-6-------4-6----------|(se repite varias veces)
E-6-6-6-6----6-6-6-6---6-6-6-6-----6-6-6-6-|

e--6------6------------|
B--7----7---7----------|
G--8---8-8-8-8---------| (esto suena medio apagado)
D----------------------|
A-6--------------------|
E----------------------|

D#m         Ab
Cerca del nuevo fin
  Abm          A#m      D#m
tabu, fuego y dolor.
D#m             Ab
la selva se abrio a mis pies
     Abm             A#m
y por ti, tuve el valor
        D#m
de seguir...

D--------------------------|
A----6-6-6-6-6---6-6-6-6-6-|
E-6-8---------6-8----------|

D#m            Ab
Al animo de brillar
   Abm         A#m
la luz se adelanto
D#m           Ab
trepando montañas fui
      Abm           A#m
y perdi la tentacióm...
     D#m   A#m  Abm
por tiiiiiiiiiiiii
            A#m
lo hice por ti...
     D#m  A#m  Abm
por tiiiiiiiiiiiii
         A#m
tuve el valor.


D#m-Fm-D#m-Fm-F#-G#(x2 esto se toca muy rapido)


corri hasta alcanzarte
y venci la sordida sed.
en la alquimia salvaje
de tus labios oro rubi.


        D#m   A#m     Abm
por tiiiiiiiiiiiiiiiiii
           A#m
lo hice por ti
        D#m   A#m     Abm
por tiiiiiiiiiiiiiiiii
           A#m
tuve el valor.


e|------------------------------------------------|
B|-----------------------8------------------------|
G|---9~9~9~9~---------1/9---9---------------------|

e|--------------------------------------------------|
B|---9~~9~~9~~9~~9~~9-10-10-10----10--8-------------|
G|--------------------------------------------------|

e|------------------------------------------------------------------|
B|----------------------------------------------------------------9~|
G|-10-8------10-8------10-8------10-8------10-8------10-8------10---|
D|------11-8------11-8------11-8------11-8------11-8------11-8------|

e|-------------------------9-8-6-----------|
B|---9-8-6---9-8-6---9-8-6--------9-6------|
G|-------------------------------------9-6-|

        D#m   A#m     Abm
por tiiiiiiiiiiiiiiiiii
           A#m
lo hice por ti
        D#m   A#m     Abm
por tiiiiiiiiiiiiiiiii
           A#m
tuve el valor.

Cualquier duda o consejo o error escriban a chukyar@
Siempre es mejor hacer los acordes con cejilla,
asi suena lo mas parecido posible...
Saludos!
Suggest correction
Give kudos to tab author, rate the tab!
1 2 3 4 5
comments
print report bad tab
guest
You may want to rate the tab now too:
select rating
Wanna post a correction for this tab? Suggest correction