Oops, an error
Loading. Please wait.

Traeme La Noche Bass Tab

355 views 3 this week
no commentswrite comment
1 2 3 4 5
3 more votes to show rating
add to favorites
launch autoscroll
font size
0
reset
guitar tuner
×
Best way to learn
"Traeme La Noche"
Autoscroll
slow
fast
+/-
esc
set tempo
stop
Bajo y Voz: Gustavo Cerati
Guitarra: Andy Summers
Batería: Vinnie Colaiuta

Año: 1998

/=slide
x=Mutear Cuerda

Intro: 0:05
G----------------------------------------------I
D----------------------------------------------I
A-----------------------------------------7----I
E-0/55-5-5-5?-5/777-7-7?-7/999-9-979-9-979-9-7-I

Verso:
G----------------------------------------------I
D----------------------------------------------I
A-----------------------------------------7----I   x5
E-55-5-5-5-5?-5/777-7-7?-7/999-9-979-9-979-9-7-I

Verso2: 1:02 ?La Espera Entre??
G----------------------------------------------I
D----------------------------------------------I
A----------------------------------------------I
E-55-5-5-5-5?-5/7-7-7-7?-7/9-9-97-77?7/6-6-6-6/I

Verso:
G----------------------------------------------I
D----------------------------------------------I
A-----------------------------------------7----I
E-55-5-5-5-5?-5/7-7-7-7?-7/9-9-9-999-9-979-9-7-I


Chorus:
G------------------------------------------------------------I
D------------------------------------------------------------I
A------------------------------------------------------------I   x2
E-000-x000x02222x22222x2x/14-14-14-x14-14-14-14/9-9-9/77-7-7-I

Verso:
G----------------------------------------------I
D----------------------------------------------I
A-----------------------------------------7----I   x2
E-0/5-5-5-5-5-5/7-7-7-7?-7/9-9-9-979-9-979-9-7-I

Verso2:
G----------------------------------------------I
D----------------------------------------------I
A----------------------------------------------I
E-55-5-5-5-5?-5/7-7-7-7?-7/9-9-97-77?7/6-6-6-6/I


Verso Variacion Final: ?No Hay Nada Que??
G------------------------------------------------------------I
D------------------------------------------------------------I
A------------------------------------------------------------I
E-55-5-5-5-5?-5/7-7-7-7?-7/9-9-9-999x99/12-12-12/14-14-14/16/I

Chorus:
G------------------------------------------------------------I
D------------------------------------------------------------I
A------------------------------------------------------------I   x2
E-000-x000x02222x22222x2x/14-14-14-x14-14-14-14/9-9-9/77-7-7-I

Solo de Guitarra:
G------------------------------------------------------------I
D------------------------------------------------------------I
A------------------------------------------------------------I   x2
E------------------------------------------------------------I

Verso Variado:
G------------------------------------------------------I
D------------------------------------------------------I
A-------------------------------------------------7----I
E-0/5-5-5-5-5-5/7-7-7-7?-7/9-9-9/4-44/9--9-9-9-979-9-7-I

Verso Variado2:
G------------------------------------------------------------I
D------------------------------------------------------------I
A------------------------------------------------------------I
E-5-55x0-5-5/7-7-7-7?/0-5/77/9-9-9-9-9-9-9-9-12-12-14-14/16/-I

Chorus:
G------------------------------------------------------------I
D------------------------------------------------------------I
A------------------------------------------------------------I
E-000-x000x02222x22222x2x/14-14-14-x14-14-14-14/9-9-9/77-7-7-I

G------------------------------------------------------------I
D------------------------------------------------------------I
A-5777-x5777x-x5777x-x5777x----------------------------------I
E------------------------------------------------------------I

Outro:
G------------------------------------------------------------I
D------------------------------------------------------------I
A-5------4-------3--------2----/5------4------3------2-------I
E------------------------------------------------------------I

G------------------------------------------------------------I
D------------------------------------------------------------I
A-0/5~-----7-777---3-3--3-222-2/0----------------------------I
E------------------------------------------------------------I

G------------------------------------------------------------I
D------------------------------------------------------------I
A-0/555~---7-777---3-3--3-222-2/0----------------------------I
E------------------------------------------------------------I

G------------------------------------------------------------I
D------------------------------------------------------------I
A-0/555----4-444---3-3--3-222-2/0----------------------------I
E------------------------------------------------------------I

G------------------------------------------------------------I
D------------------------------------------------------------I
A-0/555----7-777---3-03--3-222-2/0---------------------------I
E------------------------------------------------------------I

G------------------------------------------------------------I
D------------------------------------------------------------I
A-0/555----7-777--10-10-10-10--------------------------------I
E-----------------------------7-77-7-------------------------I

G------------------------------------------------------------I
D------------------------------------------------------------I
A-0/555----4-444---3-3--3-33--2~-----------------------------I
E------------------------------------------------------------I

Verso: 4:10 (Despues de Bateria)
G------------------------------------------------------------------------I
D------------------------------------------------------------------------I
A------------------------------------------------------------------------I
E-5-7~--/8-8-8-8?8/10-10-10-10-10/12-12-12-p11/12-12-12-p11/12-14-10-I

G------------------------------------------------------------I
D------------------------------------------------------------I
A------------------------------------------------------------I
E-8-8-8-8?8/10-10-10-10-/10?12-12-12-12/p11/12-12-14-15-17---I

Final: (Gradualmente bajando el volumen)
G------------------------------------------------------------------------I
D------------------------------------------------------------------------I
A------------------------------------------------------------------------I
E-/8-8-8-8?8/10-10-10-10-/10?12-12-12-12/p11/12-12-12-p11/12-14-10-------I


ESPERO QUE LES GUSTE

CABE DESTACAR EL GRAN APORTE DE VINNIE COLAIUTA EN LA BATERIA, UN ANIMAL!!!

M_SOTO83@

PARA CONSULTAS O DETALLES?ESCRIBAN AL MAIL

MAXI
Suggest correction
Give kudos to tab author, rate the tab!
1 2 3 4 5
comments
print report bad tab
guest
You may want to rate the tab now too:
select rating
Wanna post a correction for this tab? Suggest correction