Oops, an error
Loading. Please wait.

Por Volverte A Amar Tab

33 views 1 this week
no commentswrite comment
1 2 3 4 5
3 more votes to show rating
add to favorites
×
Save as Personal and add changes to this tab that will be seen only by you. Learn more ›
×
You can save this tab as Personal to edit and correct it or add notes. All changes will be seen only by you. Learn more »
save as personal
new!
launch autoscroll
font size
0
reset
how to read this tab
guitar tuner
Autoscroll
slow
fast
+/-
esc
set tempo
stop
      B                F#
si pudiera el viento devolverme
G#m         E
lo q se llevo
       G#m       F#
si supieramos acaso
        E
q fue lo q sucedio

     D#m       E
solo se q estoy
    F#        B
pensando en ti
    F#
talvez estes tb
            E   F#7
pensando en mi

     B         F#       G#m   E
todavia puedo verte sonreir
G#m        F#        E
sabes q te echo te menos?
      D#m        E            B
es dificil explicarle al corazon
   F#          E
siempre q se impone la razon
     F#7
simplemente...

        B
por volverte a amar daria media vida 
       (A#m-G#m)      F#
por volver a estar contigo noche y dia
                   (F#-F)      E
por besarte y abrazarte sin control


e-----7-------------------|
B---7---------------------|
G-9-----------------------|
D-------------------------|
A-------------------------|
E-------------------------|


           C#m
te extaño tanto amor

e-----6-4-----------------|
B---5-----5---------------|
G-6---------6-4-----------|
D-------------------------|
A-------------------------|
E-------------------------|


    F#(este F se hace con un crescendo hasta F#7)
si supieras cuanto te amo correrias a mi lado

    B
pq la melancolia se respira entre mis brazos
(A#m-G#m)F#
  y hace lenta la agonia
                          (F#-F)E
de quererte y no tenerte junto a mi

e-----7-------------------|
B---7---------------------|
G-9-----------------------|
D-------------------------|
A-------------------------|
E-------------------------|


           C#m          F#(igual q el anterio,crescendo)
te siento aqui, y esque talvez estes cantando
                         B
tu tb esta cancion, como yo

    B         F#
si supieramos acaso
      G#m        E
q fue lo q  sucedio
     G#m       F#
q vacio se metio
         E
q fue lo q nos alejo

      D#m      E   F#    B
si querernos tanto no basto
F#              E
q es lo q hace falta para estar
          F#
siempre juntos


        B
por volverte a amar daria media vida 
       (A#m-G#m)      F#
por volver a estar contigo noche y dia
                   (F#-F)      E
por besarte y abrazarte sin control


e-----7-------------------|
B---7---------------------|
G-9-----------------------|
D-------------------------|
A-------------------------|
E-------------------------|


           C#m
te extaño tanto amor
    F#(este F se hace con un crescendo hasta F#7)
si supieras cuanto te amo correrias a mi lado
     B
como yo..


Solo (arreglo para una lira, en la rola son dos)
(con un poco de distor)

e-7---9---10-9-10---10^(11)-10-12-12^(14)--|
B-8--10~-----------------------------------|
G------------------------------------------|
D------------------------------------------|
A------------------------------------------|
E------------------------------------------|

nooooooo

   (esta parte es rapido )
e-12-14-11-12-9-11-7-9-7-9----------------|
B-----------------------------------------|
G---------------------------------------11|
D------------------------------11-13-14---|
A---------------------------14------------|
E-----------------------------------------|


e--------------11-12-14~~-----------------|
B-----11-12-14----------------------------|
G--13-------------------------------------|
D-----------------------------------------|
A-----------------------------------------|
E-----------------------------------------|


        B
por volverte a amar daria media vida 
       (A#m-G#m)      F#
por volver a estar contigo noche y dia
                   (F#-F)      E
por besarte y abrazarte sin control


e-----7-------------------|
B---7---------------------|
G-9-----------------------|
D-------------------------|
A-------------------------|
E-------------------------|


           C#m
te extaño tanto amor

e-----6-4-----------------|
B---5-----5---------------|
G-6---------6-4-----------|
D-------------------------|
A-------------------------|
E-------------------------|


    F#(este F se hace con un crescendo hasta F#7)
si supieras cuanto te amo correrias a mi lado

    B
pq la melancolia se respira entre mis brazos
(A#m-G#m)F#
  y hace lenta la agonia
                          (F#-F)E
de quererte y no tenerte junto a mi

e-----7-------------------|
B---7---------------------|
G-9-----------------------|
D-------------------------|
A-------------------------|
E-------------------------|


           C#m          F#(igual q el anterio,crescendo)
te siento aqui, y esque talvez estes cantando
                         B~
tu tb esta cancion, como yo


Espero q les guste, la vi en las peticiones muy 
solicitada, si tienen algun comentario anecdota
chiste o lo q sea, escrbanme a mimail.. ahora casi nadie
me escribe... jcd_007@

si van a usar esta tab para algun lugar avisenme
no sean ****gandallas***** y si buscan un 
guitarrista ando en busca de banda =)
Suggest correction
Give kudos to tab author, rate the tab!
1 2 3 4 5
comments
print report bad tab
guest
Wanna post a correction for this tab? Suggest correction