Oops, an error
Loading. Please wait.

Acortando Las Distancias Tab

11 views 1 this week
no commentswrite comment
1 2 3 4 5
3 more votes to show rating
add to favorites
×
Save as Personal and add changes to this tab that will be seen only by you. Learn more ›
×
You can save this tab as Personal to edit and correct it or add notes. All changes will be seen only by you. Learn more »
save as personal
new!
launch autoscroll
font size
0
reset
how to read this tab
guitar tuner
Autoscroll
slow
fast
+/-
esc
set tempo
stop
               Acortando la distancia

Aquí tienen la canción de gustavo lastra,
esta es una canción muy romántica la cual me gusto,
no había escuchado a este interprete trovador
pero sin querer por el destino lo escuche y me gustaron varias
composiciones y su estilo espero que disfruten esta canción
al igual que yo,esta es la forma en como la toca.

esta canción se la dedico ala mujer que amo
GISELA YANETH que cada día aprendo mas de ti

Intro
Capo en el 2do traste


    G*      G*     G*   G*                     Am7sus
E---3-------3------3----3---------------------------------------|
A---------------------------------------------0-----0----0------|
D-----0-------0------0----0-------------------------------------|
G---2-------2------2----2-----0H2------0H2H0--0-0---0-0--0-0----|
B---3-------3------3----3--------0H1H0--------1-----1----1------|
e---------------------------------------------3-----3----3------|


   Am7sus     C9                  D4    D     D
E------------------------------------------------------|
A--0----------3----3----3------------------------------|
D---------------------------0H2---0-----0-----0--------|
G--0-0--------0-0--0-0--0-0----0--2-2---2-2---2-2------|
B--1---0H1H0--3----3----3---------3-----3-----3--------|
e--3--------3-3----3----3---------3-----2-----2--------|


G*      G*     G*   G*           Am7sus
E---3-------3------3----3--------------------------|
A--------------------------------0-----0----0------|
D-----0-------0------0----0------------------------|
G---2-------2------2----2--------0-0---0-0--0-0----|
B---3-------3------3----3--------1-----1----1------|
e--------------------------------3-----3----3------|


   C9                D4    D     D
E----------------------------------------|
A---3----3----3--------------------------|
D--------------------0-----0-----0-------|
G---0-0--0-0--0-0----2-2---2-2---2-2-----|
B---3----3----3------3-----3-----3-------|
e---3----3----3------3-----2-----2-------|


    G*      G      G        Am7
E---3-------3------3---------------------------------|
A---------------------------0-------0--------0-------|
D-----0-------0------0-------------------------------|
G---2-------0------0--------0-0-0---0-0-0----0-0-0---|
B---3-------3------3--------1-------1--------1-------|
e------------------------------0-------0--------0----|
  Huum huu

   C9                D4    D     D
E----------------------------------------|
A---3----3----3--------------------------|
D--------------------0-----0-----0-------|
G---0-0--0-0--0-0----2-2---2-2---2-2-----|
B---3----3----3------3-----3-----3-------|
e---3----3----3------3-----2-----2-------|


Acordes
        654321
Am7     002010
Am7sus  002013
C9      032033
D       000232
D4      000233
D7      000212
Em      022000
Esus    022200
Esus4   020200
F5*     130000
G*      300230
G       30003x


            G            Am7SUS      C9   D
Te abrí las puertas de mi corazon un dia
          G           Am7SUS      C9   D4 D* G
cuando la magia del destino apareció
            G            Am7           C9 D4
Mientras el fuego de tu cuerpo me envolvia
        G    Am7 C9 D4 D* D
 con el amor

         G          Am7SUS              C9  D4
Toque tu mano y descubrí que era el momento
      G              Am7            C9   D4  D*
de darte todo lo que siempre quise dar
         G            F5*          Em Esus4
Sobre tus alas me llevaste al firmamento

(Se rasguea)
        Am    D         G
 y pude volar.. pude volar

               Em            Esus       Em   SIm SIm7
 y nos quedamos juntos acortando las distancia
                Am              Em   E*   Em D D4 D
 y pronunciamos miles de te quieros sin hablar
                  Em E* Em      C9            SIm SIm7 (Em)
 y me dormi en tus brazos sin temor a la nostalgia
                 Am          D7            G    (Em)
 Pidiendo que la noche no se fuera a terminar


  G Am Am7sus C9 D4 D G


             G            Am7SUS     C9 D4 D
 Te abri las puertas de corazón un dia
         G           Am7SUS      C9   D4 D*
 y tu llegada puso paz a mi interior
         G            F5*          Em Esus4
 Se transformo la soledad en alegría

(Se rasguea)

            Am    D         G
 y vino el amor... vino el amor


               Em            Esus      Em   SIm SIm7
 y nos quedamos juntos acortando las distancia
                Am              Em   E*   Em D D4 D
 y pronunciamos miles de te quieros sin hablar
                  Em E* Em      C9            SIm SIm7 (Em)
 y me dormi en tus brazos sin temor a la nostalgia
                 Am          D7            G    (Em)
 Pidiendo que la noche no se fuera a terminar

               Em            Esus       Em   SIm SIm7
 y nos quedamos juntos acortando las distancia
                Am              Em   E*   Em D D4 D
 y pronunciamos miles de te quieros sin hablar
                  Em E* Em      C9            SIm SIm7 (Em)
 y me dormi en tus brazos sin temor a la nostalgia
                 Am          D7            G   Em
 Pidiendo que la noche no se fuera a terminar
                 Am         C9              D4 D
 pidiendo que lo nuestro se volviera    realidad

 G Em7 Am Am7sus C9 D4 D G


  D*
E-------------3-----|
A-------------------|
D-0-----------------|
G--2----------0-----|
B---3---------3-----|
e----3H2H0----3-----|


   E*
E--0--0-------|
A--2--2-------|
D--2--2-------|
G--2--0-------|
B--0--0-------|
e--0--0-------|

(Em)
Esta nota se rasguea y se levanta los de dos dedos
de la figura de Mim, se levantan y se dejan caer solo
hay que escuchar bien la canción mas sencillo no se puede


Hasta la siguiente vez...
Suggest correction
Give kudos to tab author, rate the tab!
1 2 3 4 5
comments
print report bad tab
guest
Wanna post a correction for this tab? Suggest correction