Oops, an error
Loading. Please wait.

Canto Anonimo Tab

11 views 1 this week
no commentswrite comment
1 2 3 4 5
3 more votes to show rating
add to favorites
×
Save as Personal and add changes to this tab that will be seen only by you. Learn more ›
×
You can save this tab as Personal to edit and correct it or add notes. All changes will be seen only by you. Learn more »
save as personal
new!
launch autoscroll
font size
0
reset
how to read this tab
guitar tuner
Autoscroll
slow
fast
+/-
esc
set tempo
stop
intro.
Nota:
La cancion orginal lleva el capo en el segundo traste.
Utilizaremos el capo en el mismo (2do).
Observaciones:  la cancion es de tipo arpegio pausado.

Capo.  2do. traste (version original)
En el diagrama sig. parece normal (sin capo) pero no es
así, el diagrama ya contiene el capo.

Explicacion de los siguientes arreglos

Darr : Arreglo de D
Barr : Arreglo de B
Garr : Arreglo de G
Aarr : Arreglo de A

capo
2do. traste

Ej.
   |        Darr
E|-|---------------------------------------------
A|-|---------------------------------------------
D|-|---0-------0-------0-------0-----------------
G|-|-----2---2---2---2---2---2---2---2-----------
B|-|---3---3---2---2---3---3---2---2-------------
E|-|---------------------------------------------
      Señor, hoy he venido a platicar,

          Barr
E|-|---------------------------------------------
A|-|---------------------------------------------
D|-|---2-------2-------2-------2---0-------------
G|-|-----2---2---2---2---2---2---2---2-----------
B|-|---3---3---2---2---3---3---2---2-------------
E|-|---------------------------------------------
      yo se que tu te encuentras por aqui,

            Garr
E|-|---3-------3-------3-------3-----------------
A|-|---------------------------------------------
D|-|---------------------------------------------
G|-|-----2---2---2---2---2---2---2---2-----------
B|-|---3---3---2---2---3---3---2---2-------------
E|-|---------------------------------------------
      tal vez se te haga raro pero si,

            Earr   
E|-|---0-------0---------------------------------
A|-|--------------------0---------0--------------
D|-|---------------------------------------------
G|-|-----0---0---0---0----2---2------------------
B|-|---3---3---2---2----3---3-----2--------------
E|-|----------------------------0----------------
      hoy vengo a agradecerte por su amor...

        Aarr
E|-|-------------------
A|-|--0---------0------
D|-|-------------------
G|-|----2---2----------
B|-|--3---3-----2------
E|-|----------0--------

|---------------------------------------------------|

          Garr2
E|-|--3------2-------0--------------------------
A|-|--------------------------0-----------------
D|-|--------------------------------------------
G|-|---0---0---0---0----0---0---2---2-----------
B|-|-----3-------3--------3-------3-------------
E|-|--------------------------------------------

Darr      
Señor, hoy he venido a platicar,
Barr
yo se que tu te encuentras por aqui,
Garr
tal vez se te haga raro pero si,
Earr                          Aarr
hoy vengo a agradecerte por su amor...

Darr
Fue tanto el tiempo con la soledad,
Barr
que hoy por fin he vuelto a sonreir,
Garr
ya que por ella me pienso entregar,
Earr                     Aarr
te ruego que jamas la dejes ir.

 Garr2                               Garr2
Es perciso que se quede junto a mi, hasta el fin
(Solo bajeo)G  F#m  ||  Earr                       D
                        Tambien queria pedirte de favor,
           G          A            B7 A
que la distancia no separe nuestro amor.


  Garr2
Tengo fe, luchará,

y a las tempestades sobrevivira,
 Garr2
crecerá,
                                Garr2
como el árbol de la vid frutos dara,

y tal vez al final,
                    Garr2
hasta el cielo llegara...

/ Darr / y al terminar el arreglo finalizamos en D mayor


fin

Sencilla ¿no?
Espero que les sea útil y que no se les dificulte.
Recuerden que la paciencia es una virtud.

Cualquier duda, escribanme...
= idstdiegorivera@ =
Suggest correction
Give kudos to tab author, rate the tab!
1 2 3 4 5
comments
print report bad tab
guest
Wanna post a correction for this tab? Suggest correction