Oops, an error
Loading. Please wait.

Siente Chords

13 views 1 this week
no commentswrite comment
1 2 3 4 5
3 more votes to show rating
add to favorites
×
Save as Personal and add changes to this tab that will be seen only by you. Learn more ›
×
You can save this tab as Personal to edit and correct it or add notes. All changes will be seen only by you. Learn more »
save as personal
new!
launch autoscroll
font size
0
reset
transpose
0
reset
simplify chords
display chords
guitar tuner
Autoscroll
slow
fast
+/-
esc
set tempo
stop
Strumming
There is no strumming pattern for this song yet. and get +5 IQ
Con mucho aprecio y dedicada al taller
de guitarra de Polotitlan.

Hechenle ganas! y gracias Profe Lalo por su apoyo.

SIENTE

INTRO
    Em             Cadd9        G/G(no3)     G/F#(no5)         Em/F#
e|------------------------------------------------------|------|-0-|
b|---------0-------------1------------3------------0----|------|-0-|
g|------0-----0-------0-----0------0-----0------0-----0-|-(x5)-|-0-|
D|---2--------------------------5------------4----------|------|-4-|
A|-----------------3------------------------------------|------|---|
E|------------------------------------------------------|------|---|

Em         Cadd9     G/G(no3) G/F#(no5)
Nadie nos puede parar
Em         Cadd9   G/G(no3)
Nadie nos puede decir
           G/F#(no5)
Que es lo nuestro
Em       Cadd9       G/G(no3) G/F#(no5)
Tampoco pueden callar
Em         Cadd9      G/G(no3)  G/F#(no5)
Aquellos gritos que llevas por dentro

e|--0-x-0-x-3-x------------|------|
b|--0-x-1-x-3-x-------0----|------|
g|--0-x-0-x-4-x----0-----0-|-(x2)-|
D|--2-x-0-x-5-x-4----------|------|
A|--2-x-3-x-5-x------------|------|
E|----x---x-3-x------------|------|

Todo se puede alcanzar
Hasta lo más profundo del alma
Las llagas pueden sanar
Cuando hay perdón
Se pueden recuperar

   Em Cadd9 G/G(no3)    G/F#(no5)     Em  Cadd9
Y siente    que este momento es para siempre
 G/G(no3) G/F#(no5)     Em Cadd9
Y que el pasado nunca miente
 G/G(no3)    G/F#(no5)  Em Cadd9 G/G(no3) G/F#(no5)
Lo que construyas quedara
  Em Cadd9 G/G(no3)    D             Em Cadd9
Siente     que este momento es suficiente
G/G(no3)    D           Em Cadd9
Y que el pasado nunca miente
G           D          Em Cadd9 G/G(no3) D
Lo que construyas quedara.

    Em             Cadd9        G/G(no3)     G/F#(no5)
e|------------------------------------------------------|------|
b|---------0-------------1------------3------------0----|------|
g|------0-----0-------0-----0------0-----0------0-----0-|-(x2)-|
D|---2--------------------------5------------4----------|------|
A|-----------------3------------------------------------|------|
E|------------------------------------------------------|------|


Cada palabra que doy cuelga del viento
Por eso quiero cantar lo que siento
Si no me puedes oír  alguien lo hará
No es necesario sufrir
Para sentir que te llenas de gloria
Tan solo basta seguir tus sueños
Tan solo basta vivir

   Em Cadd9 G/G(no3)    G/F#(no5)     Em  Cadd9
Y siente    que este momento es para siempre
 G/G(no3) G/F#(no5)     Em Cadd9
Y que el pasado nunca miente
 G/G(no3)    G/F#(no5)  Em Cadd9 G/G(no3) G/F#(no5)
Lo que construyas quedara
  Em Cadd9 G/G(no3)    D             Em Cadd9
Siente     que este momento es suficiente
G/G(no3)    D           Em Cadd9
Y que el pasado nunca miente
G           D          Em Cadd9 G/G(no3) D
Lo que construyas quedara.

        E B G D A E |  A
       Em 0 0 0 2 2 X |  C
    Cadd9 0 1 0 0 3 X |  O
 G/G(no3) X 3 0 5 X X  > R
G/F#(no5) X 0 0 4 X X |  D
    Em/F# 0 0 0 4 X X |  E
        D 2 3 2 4 0 X |  S

Beatle_cn  ©
Suggest correction
Give kudos to tab author, rate the tab!
1 2 3 4 5
comments
print report bad tab
guest
Wanna post a correction for this tab? Suggest correction