Oops, an error
Loading. Please wait.

Left Behind Together tab

version 2
version 2

Whole song

1,955 views 12 this week
no commentswrite comment
1 2 3 4 5
x 6
add to favorites
×
Save as Personal and add changes to this tab that will be seen only by you. Learn more ›
×
You can save this tab as Personal to edit and correct it or add notes. All changes will be seen only by you. Learn more »
launch autoscroll
font size
0
reset
how to read this tab
guitar tuner
edit
Autoscroll
slow
fast
+/-
esc
set tempo
stop
Author
-------------------------------------------------------------------------------
                             Left Behind (Together) - Gustavo Santaolalla
-------------------------------------------------------------------------------
Tabbed by:Emachines567
E-mail:

Tuning: Standard

e|------------0-------------------------------------------------------0---------------------------------------|
B|---------0-----0-----0--------------0-----0-----0----------------0-----0-----0-------------0-----0-----0----|
G|------4-----------4-----4--------4-----4-----4-----4----------4-----------4-----0-------4-----4-----4-----4-|
D|---4--------------------------4----------------------------4-------------------------4----------------------|
A|------------------------------------------------------------------------------------------------------------|
E|------------------------------------------------------------------------------------------------------------|

e|----------2-----2--------------------------------------------------0-----0----0-----------------------------|
B|------------0-----0-----5--3-----2-----------0-----0--------0-------------------3--2----0-----0-----0-----0-|
G|--4---4--------------4--------------4-----4-----4-----0-----2--2-----2-----2---------------2-----2-----2----0
D|--4------------------------------4-----4--------------------2---------------------------2-------------------|
A|------------------------------------------------------------------------------------------------------------|
E|------------------------------------------------------------------------------------------------------------|

e|----------2-----2-----------------------------------0--------------0-----0----------------------------------|
B|---0---------0-----0-----5--3-----2--------------------0-----0-----------------0--3--2----0-----0-----0----0|
G|---4---4--------------4-----------------4-----4--------------2--2-----2-----2----------------2-----------2--|
D|---4------------------------------4--4-----4-----4-----------2----------------------------2--------2--------|
A|------------------------------------------------------------------------------------------------------------|
E|------------------------------------------------------------------------------------------------------------|

e|------------------------------------------------------------------------------------------------------------|
B|-------------3-----3-----2-------0-2-0------------0-----2------3------------3------2------------------2-----|
G|----------------------0-----0--------------2---------0-----0------0------0----------------0-----0-----------|
D|----------0-----0-----------------------0-----0----------------------4---------4-------4-----4-----4-----4-5|
A|---------------------------------------------------------------2-------------------0------------------------|
E|-0--2--3----------------------------------------------------------------------------------------------------|

e|----------------------------------------------------------------0-------------------------------------------|
B|--0--------0-----------0------------0------------------------0-----------0----------------------------------|
G|--0-----0-----0-----0------------0-----0-----0--0---------0-----------0------3------------------------------|
D|--0--0-----------0------------0--------0--0------------4-----------4---------4------------------------------|
A|------------------------------------------------------------------------------------------------------------|
E|--3------------------------3------------------------2------------------------2------------------------------|

e|------------0-------------------------------------------------------0---------------------------------------|
B|---------0-----0-----0--------------0-----0-----0----------------0-----0-----0-------------0-----0-----0----|
G|------4-----------4-----4--------4-----4-----4-----4----------4-----------4-----0-------4-----4-----4-----4-|
D|---4--------------------------4----------------------------4-------------------------4----------------------|
A|------------------------------------------------------------------------------------------------------------|
E|------------------------------------------------------------------------------------------------------------|


e|---------2-----2--------------------------------------------------0-----0----0-----------------------------|
B|------------0-----0-----5--3-----2-----------0-----0--------0-------------------3--2----0-----0-----0-----0|
G|--4---4--------------4--------------4-----4-----4-----0-----2--2-----2-----2---------------2-----2-----2---0
D|--4------------------------------4-----4--------------------2---------------------------2------------------|
A|-----------------------------------------------------------------------------------------------------------|
E|-----------------------------------------------------------------------------------------------------------|

e|----------2-----2-------------------------------------------------0-----0-----------------------0-----------|
B|---0---------0-----0-----5--3-----2-----------------0--------0-----------------0--3--2----0--------0-----0--|
G|---4---4--------------4-----------------4-----4--------0-----2--2-----2-----2----------------2--------4----2|
D|---4------------------------------4--4-----4-----4-----------2----------------------------2-----------------|
A|------------------------------------------------------------------------------------------------------------|
E|------------------------------------------------------------------------------------------------------------|

e|------------------------------------------------------------------------------------------------------------|
B|-------------3-----3-----2-------0-2-0------------0-----2------3------------3------2---------2--------2-----|
G|----------------------0-----0--------------2---------0-----0------0------0----------------0-----0-----------|
D|----------0-----0-----------------------0-----0----------------------4---------4-------4-----------4-----4-5|
A|---------------------------------------------------------------2-------------------0------------------------|
E|-0--2--3----------------------------------------------------------------------------------------------------|


e|---------------------------------------3------------------------------0-------------------------------------|
B|--0--------0-----------0------------0-----0------------------0----------------------------------------------|
G|--0-----0-----0-----0------------0-----------0------------0-----0-----------3-------------------------------|
D|--0--0-----------0------------0-----------------0------4-----------4-----4--4-------------------------------|
A|------------------------------------------------------------------------------------------------------------|
E|--3------------------------3------------------------2--2--------------------2-------------------------------|


e|-------2--2-----------------------------0-----0------------------------------------2-----2------------------|
B|---0----------5-3--2--------0--0--0--------0------3--2--0------0-----0-------0--------0-----0---------------|
G|----------------------4--------------2----------------------4-----2-----0----4--4---------------4-----------|
D|---4---------------4-----4--------2---------------------2--------------------4------------------------------|
A|------------------------------------------------------------------------------------------------------------|
E|------------------------------------------------------------------------------------------------------------|
-
e|----------------------------------------0-----0-------------------------------------------------------------|
B|--5--3--2-----------0-----0-------0-------------------3--2---0-----0-----0-----0----------------------------|
G|-----------4-----4-----4-----0-------2-----2-------2------------4-----2-----2-------------------------------|
D|--------4-----4-------------------2--------------------------2----------------------------------------------|
A|------------------------------------------------------------------------------------------------------------|
E|------------------------------------------------------------------------------------------------------------|

e|------------------------------------------------------------------------------------------------------------|
B|-------------3-----3-----2------2-0-2-----------0-----2------3----------------------------------------------|
G|-------------------0----------------------2--------0-----0---4----------------------------------------------|
D|----------0-----0-----0-----0----------0-----0---------------4----------------------------------------------|
A|-------------------------------------------------------------2----------------------------------------------|
E|-0--2--3----------------------------------------------------------------------------------------------------|


************************************

| /   slide up
| \   slide down
| h   hammer-on
| p   pull-off
| ~   vibrato
| +   harmonic
| x   Mute note
| b   Bend
| pb  Pre-bend
| br  Bend release
| pbr Pre-bend release
| brb Bend release bend

************************************

            
            
Suggest correction
Creating personal tab
Creating personal tab
You can edit any tab online and save it as your Personal.

You can edit, replace or remove any tab part or add personal notes – all changes will be seen only by you.

Personal tabs can be accessed anytime from any device, even offline.
Learn more »
comments
print report bad tab
guest
You may want to rate the tab now too:
select rating
Wanna post a correction for this tab? Suggest correction