Oops, an error
Loading. Please wait.

The Choice tab

version 1
version 1

Interactive

66,283 views 339 this week
16 commentsread comments
1 2 3 4 5
x 58
add to favorites
×
Save as Personal and add changes to this tab that will be seen only by you. Learn more ›
×
You can save this tab as Personal to edit and correct it or add notes. All changes will be seen only by you. Learn more »
launch autoscroll
font size
0
reset
how to read this tab
guitar tuner
edit
Autoscroll
slow
fast
+/-
esc
set tempo
stop
The Choice - Gustavo Santaolalla
Tabbed by: earncreek
Tuning: Standard


e|---------------------------------------|
B|---------------------------------------|
G|---------------------------------------| x2
D|---5---2--4-----5----2--4---0---2------|
A|-7----3--5----7-----3--5---2--3--------|
E|---------------------------------------|

e|--------------------------------------------------------------------------|
B|--------------------------------------------------------------------------|
G|--------------------------------------------------------------------------|
D|-------6-7-9---10-------6-----6-7-7/9---7-------6-------------------------|
A|--7---7-------12--7h9--7-----7---------7--7h9--7--------------------------|
E|-0---0-------0--------0-----0---------0-------0---------------------------|

e|--------------------------------------------------------------------------|
B|--------------------------------------------------------------------------|
G|-------4-----------2-------2----------------------------------------------|
D|-----4-----4-----2----------------6---------6-----4-----------------------|
A|-2/5---------5-3-----3-----------7--7---------7------6--------------------|
E|--------------------------------0-----------------------------------------|

e|---------------------------------------------------------------------------|
B|---------------------------------------------------------------------------|
G|---------------------------------0-----------------------------------------|
D|---5---2--4-----5---2--4---0----2------------------------------------------|
A|-7----3--5----7----3--5---2----3-------------------------------------------|
E|---------------------------------------------------------------------------|


************************************

| h  Hammer-on
| /  Slide up

************************************

            
            
Suggest correction
Creating personal tab
Creating personal tab
You can edit any tab online and save it as your Personal.

You can edit, replace or remove any tab part or add personal notes – all changes will be seen only by you.

Personal tabs can be accessed anytime from any device, even offline.
Learn more »
comments
print report bad tab
16 comments total. Showing first comments.
+5 reply
Kehlet-Hansen 10 Jul 20, 2013 03:13 AM

Very nice Tab. So easy, yet so beautiful

+7 reply
earncreek 172 Jul 23, 2013 05:59 PM

sorry about the third tab from the top. all notes supposed to be moved 1 up, so its:

e|----------------------------------------
B|----------------------------------------
G|------------------2--2------------------
D|------4---4-----2--------6----6---4-----
A|-2/5--------5-3---------7--7----7----6--
E|--------0--------------0----------------

-2 reply
DFBATTLER 149 Jul 27, 2013 02:39 PM

Why don't you edit the tab then?

guest
You may want to rate the tab now too:
select rating
Wanna post a correction for this tab? Suggest correction