Oops, an error
Loading. Please wait.

Come Downstairs And Say Hello tab

version 2
version 2

Whole song

by Guster
1,415 views 1 this week
no commentswrite comment
1 2 3 4 5
3 more votes to show rating
add to favorites
×
Save as Personal and add changes to this tab that will be seen only by you. Learn more ›
×
You can save this tab as Personal to edit and correct it or add notes. All changes will be seen only by you. Learn more »
launch autoscroll
font size
0
reset
how to read this tab
guitar tuner
edit
Autoscroll
slow
fast
+/-
esc
set tempo
stop
Song:Come Downstairs and Say Hello
Band:Guster

This is transcribed using the information of the other "Come Downstairs and Say Hello" 
it is only an octave higher, which is more accurate to how Guster actually plays it.

CAPO: II

All notes are reflective of the capo(i.e. 0 really is the 2nd fret, 2 is the 4th, etc.)

e-----------(2)---------------------------------|
B--------0---0--(3)--(3)------------------------|
G---0----0---2----------------------------------|
D------2---------0----0--0/2--------------------|
A-----------------------------------------------|
E-----------------------------------------------|
    Dorothy moves


E-----------(2)---------------------|
B--------0---0--(3)--(3)------------|
G---0----0---2----------------------|
D------2---------0----0--0/2--------|
A-----------------------------------|
E-----------------------------------|
    to click her ruby shoes

E-----------------------------------|
B------------1----------------------|
G--0------0-----0--0--0/2-----------|
D-----3-----------------------------|
A-----------------------------------|
E-----------------------------------|
   Right into

E-----------(2)---------------------|
B--------1---0--(3)--(3)------------|
G---0----0---2----------------------|
D------2---------0----0--0/2--------|
A-----------------------------------|
E-----------------------------------|
   the dark side of the moon

E--------------------------------------------------------|
B---------0--0--0/1-----------1--------------------------|
G------0---------------0------0/2------------------------|
D---------------0/2--------------------------------------|
A-------------------------0------------------------------|
E--------------------------------------------------------|
   Someone, Someone could tell me

E---------------------------------------------------|
B---------1--1-1------------------------------------|
G---0-----0--0/2------------------------------------|
D------2--------------------------------------------|
A---------------------------------------------------|
E---------------------------------------------------|

    where I belong
E-----------2---1-----------------------|
B---------------------------------------|
G--------2-----------3------------------|
D---0----3-—3--------3------------------|
A---------------------------------------|
E---------------------------------------|

    Be calm     Be  Brave

E---------------(2)---------------------|
B------------1-----(3)---(3)------------|
G-------0----0---2----------------------|
D----------2--------0-----0--0/2--------|
A---------------------------------------|
E---------------------------------------|
 It'll be okay


The rest of the song is switching from Am to C (Reflective of the capo)

            
            
Suggest correction
Creating personal tab
Creating personal tab
You can edit any tab online and save it as your Personal.

You can edit, replace or remove any tab part or add personal notes – all changes will be seen only by you.

Personal tabs can be accessed anytime from any device, even offline.
Learn more »
Give kudos to tab author, rate the tab!
1 2 3 4 5
comments
print report bad tab
guest
Wanna post a correction for this tab? Suggest correction