Oops, an error
Loading. Please wait.

Taken Dreams Tab

172 views 15 this week
no commentswrite comment
1 2 3 4 5
2 more votes to show rating
add to favorites
launch autoscroll
font size
0
reset
how to read this tab
guitar tuner
Autoscroll
slow
fast
+/-
esc
set tempo
stop
Help us to improve Ultimate-Guitar.com Take our survey!
×
Author
Difficulty
advanced
Guthrie Govan - Taken Dreams
Part of song: First solo
Link: https://www.youtube.com/watch?v=fBwevKZ9yi0


[Solo]

e|----------------------------------------------------------------------|
B|---------------------------------------------------/9-7-------7/9-----|
G|--------4--6/8-6--3h4p3-------1--3--4--3--1------4--------------------|
D|---4/6-------------------4-2-----------------4/6--------11--9---------|
A|----------------------------------------------------------------------|
E|----------------------------------------------------------------------|

e|------------------------11-9h11p9------------------------------------------------11---9----------16T-----|
B|--9-11-12-11-9-------12----------11h12-9------9-11-12p11-------11p9----------9h12--12----12-11-----------|
G|---------------11/13---------------------9---------------13p11------11p9---------------------------------|
D|---------------------------------------------------------------------------------------------------------|
A|---------------------------------------------------------------------------------------------------------|
E|---------------------------------------------------------------------------------------------------------|

e|--------------------------------------------------------------------------------------------------|
B|--------------------------------------------------------------------------------------------------|
G|--------------------------------------8p4-4------------------------------------------------9p6-6--|
D|-9p6-6-9p6--8p4-4-8p4-4--6p2-2--9p6-6----6---9p6-6--13p9--9-13p9-11p8-8-11p8-8-11p6-6-11p6----6---|
A|----6----------4-----4------2------6------------6-------11-----------9------9------7--------------|
E|--------------------------------------------------------------------------------------------------|

e|-----------------------------------------------------------------------------------------------------------|
B|------------------------------------------------------------12p9--9---------12p9--9-12p9-11p7--7-11p7-7/9~-|
G|-13p8-8--11p6-6--13p8-8-13p8--11p6-6-11p6-6--9p4-4--13p8-8----------13p8-8---------------------------------|
D|-----9-------8-------9------------8------8------6-------9-------13------9-------13-----------11------------|
A|-----------------------------------------------------------------------------------------------------------|
E|-----------------------------------------------------------------------------------------------------------|


************************************

| h  Hammer-on
| p  Pull-off
| /  Slide up
| T  tremolo

************************************
Suggest correction
Give kudos to tab author, rate the tab!
1 2 3 4 5
comments
print report bad tab
guest
You may want to rate the tab now too:
select rating
Wanna post a correction for this tab? Suggest correction