Oops, an error
Loading. Please wait.

Can I Borrow Some Ambition tab

1,259 views 1 this week
2 commentsread comments
1 2 3 4 5
x 3
add to favorites
×
Save as Personal and add changes to this tab that will be seen only by you. Learn more ›
×
You can save this tab as Personal to edit and correct it or add notes. All changes will be seen only by you. Learn more »
launch autoscroll
font size
0
reset
how to read this tab
guitar tuner
edit
Autoscroll
slow
fast
+/-
esc
set tempo
stop
CAN I BORROW SOME AMBITION? - Guttermouth

By: Robin J. Krier  
Album: Covered with Ants (Epitaph)

Remember kids - It's not nice to calls someone's work crappy when you can't 
even write one yourself...especially a Guttermouth song.

 Lead in...
e|---------------------------------------------------------------------------|
B|---------------------------------------------------------------------------|
G|--------------------------5--5-5-5--5--7--7-7-7-7-9------------------------|
D|-7--7--7-7p5--7--7--7-7p5--------------------------------------------------|
A|---------------------------------------------------------------------------|
E|---------------------------------------------------------------------------|

 Rhythm...
e|---------------------------------------------------------------------------|
B|---------------------------------------------------------------------------|
G|---------------------------5--5-5-5-5---7--7-7-7--7------------------------|
D|-7--7--7-7-7--7--7--7-7-7--5--5-5-5-5---7--7-7-7--7------------------------|
A|-7--7--7-7-7--7--7--7-7-7--3--3-3-3-3---5--5-5-5--5------------------------|
E|-5--5--5-5-5--5--5--5-5-5--------------------------------------------------|

 Chorus "Fuck No!"
e|---------------------------------------------------------------------------|
B|---------------------------------------------------------------------------|
G|------------10--10-10-------------------------7--7-7-7-7-8-----------------|
D|-7-X--X-X-X-10--10-10--10--10-10--5-----------7--7-7-7-7-8--repeat---------|
A|-7-X--X-X-X--8---8--8--10--10-10--5-X--X-X-X--5--5-5-5-5-6-----------------|
E|-5-X--X-X-X-------------8---8--8--3-X--X-X-X-------------------------------|

 Bridge/Solo/Whatever you call it...
e|------------------|
B|-11--11-11--11--9-|
G|--9---9--9---9--7-| x8
D|------------------|
A|------------------|
E|------------------|

 2nd guitar plays this over final chorus
e|----------------|
B|-11--repeat-----|
G|--9-------------|
D|----------------|
A|----------------|
E|----------------|

            
            
Suggest correction
Creating personal tab
Creating personal tab
You can edit any tab online and save it as your Personal.

You can edit, replace or remove any tab part or add personal notes – all changes will be seen only by you.

Personal tabs can be accessed anytime from any device, even offline.
Learn more »
Give kudos to tab author, rate the tab!
1 2 3 4 5
comments
print report bad tab
2 comments total.
0 reply
kalany03 10 Jan 25, 2006 04:23 AM

io, waz up in the chorus part is not like that, you should play this

e|-------------------------------------------------------------------
B|-------------------------------------------------------------------
G|------------10--10-10-------------------------7--7-7-7-7-9---------
D|-7-X--X-X-X-10--10-10--10--10-10--5-----------7--7-7-7-7-9---------
A|-7-X--X-X-X--8---8--8--10--10-10--5-X--X-X-X--5--5-5-5-5-7---------
E|-5-X--X-X-X-------------8---8--8--3-X--X-X-X-----------------------

anyway it is a good tab.

0 reply
SkaJamas 561 Dec 29, 2015 09:44 PM

either way honestly sounds good, but the 5/6 D/Eb sounds better imo

guest
Wanna post a correction for this tab? Suggest correction