Oops, an error
Loading. Please wait.

Ive Got It Made Tab

7 views 1 this week
no commentswrite comment
1 2 3 4 5
3 more votes to show rating
add to favorites
launch autoscroll
font size
0
reset
how to read this tab
guitar tuner
Autoscroll
slow
fast
+/-
esc
set tempo
stop
Help us to improve Ultimate-Guitar.com Take our survey!
×
Author
Difficulty
intermediate
About this tab version
Tab for I've Got it Made by Guttermouth. Simple power chords, pretty simple excluding the speed and rhythm. Was this info helpful? Yes No
****Open for corrections as this is my first tab. The rhythm and speed are the trickiest bits of this song.
Listen to the song for rhythm and speed


[Intro]

e|---------------------------------------------------------------------------|
B|---------------------------------------------------------------------------|
G|-----------------------------7-7\6-----------------------------------------|
D|-4-4-7-7-9\6-6--6--4-4-7-7-9-7-7\6-4-4-7-7-9\6-6--6-77777-7\6/7\6----------|
A|-4-4-7-7-9\6-6--6--4-4-7-7-9-5-5\4-4-4-7-7-9\6-6--6-77777-7\6/7\6----------|
E|-2-2-5-5-7\4-4--4--2-2-5-5-7-------2-2-5-5-7\4-4--4-55555-5\4/5\4----------|

e|---------------------------------------------------------------------------|
B|---------------------------------------------------------------------------|
G|-4-4-7-7-9-6-6--6--4-4-7-7-9-12-12\11--4-4-7-7-9-6-6--6-77777-7-6-7-6------|
D|---------------------------------------------------------------------------|
A|---------------------------------------------------------------------------|
E|---------------------------------------------------------------------------|
                                                         PM---

e|-4-4-7-7-9-6-6--6--4-4-7-7-9-12-12\11--4-4-7-7-9-6-6--6-77777-7-6-7-6------|
B|---------------------------------------------------------------------------|
G|---------------------------------------------------------------------------|
D|---------------------------------------------------------------------------|
A|---------------------------------------------------------------------------|
E|---------------------------------------------------------------------------|      
                                                         PM---

{Verse}Play 2 times then move onto the chorus

e|-----------------------------------------------------------------------------|
B|-----------------------------------------------------------------------------|
G|-----------------------------7-7\6-------------------------------------------|
D|-4-4-7-7-9\6-6--6--4-4-7-7-9-7-7\6-4-4-7-7-9\6-6--6-7-77777-7\6/7\6----------|
A|-4-4-7-7-9\6-6--6--4-4-7-7-9-5-5\4-4-4-7-7-9\6-6--6-7-77777-7\6/7\6----------|
E|-2-2-5-5-7\4-4--4--2-2-5-5-7-------2-2-5-5-7\4-4--4-5-55555-5\4/5\4----------|
PM----------         ---------       ---------          -----

[Chorus]

e|---------------------------------------------------------------------------|
B|---------------------------------------------------------------------------|
G|----------------------7-7--7---------------6-6--6/7-7--7-------------------|
D|-4-4--4/9-9--9/7-7--7-7-7--7-4-4--4/9-9--9-6-6--6/7-7--7-------------------|
A|-4-4--4/9-9--9/7-7--7-5-5--5-4-4--4/9-9--9-4-4--4/5-5--5-------------------|
E|-2-2--2/7-7--7/5-5--5--------2-2--2/7-7--7---------------------------------|

e|---------------------------------------------------------------------------|
B|---------------------------------------------------------------------------|
G|----------------------7-7--7---------------6-6--6-7\6/7\6------------------|
D|-4-4--4/9-9--9/7-7--7-7-7--7-4-4--4/9-9--9-6-6--6-7\6/7\6------------------|
A|-4-4--4/9-9--9/7-7--7-5-5--5-4-4--4/9-9--9-4-4--4-5\4/5\4------------------|
E|-2-2--2/7-7--7/5-5--5--------2-2--2/7-7--7---------------------------------|

After 2nd time chorus 
e|---------------------------------------------------------------------------|
B|---------------------------------------------------------------------------|
G|---------------------------------------------------------------------------|
D|-4-4-7-7-9/6-6--6-77777-7\6/7\6--------------------------------------------|
A|-4-4-7-7-9/6-6--6-77777-7\6/7\6--------------------------------------------|
E|-2-2-5-5-7/4-4--4-55555-5\4/5\4--------------------------------------------|

{Verse}Same as before, play 2 times

e|-----------------------------------------------------------------------------|
B|-----------------------------------------------------------------------------|
G|-----------------------------7-7\6-------------------------------------------|
D|-4-4-7-7-9/6-6--6--4-4-7-7-9-7-7\6-4-4-7-7-9/6-6--6-7-77777-7/6/7/6----------|
A|-4-4-7-7-9/6-6--6--4-4-7-7-9-5-5\4-4-4-7-7-9/6-6--6-7-77777-7/6/7/6----------|
E|-2-2-5-5-7/4-4--4--2-2-5-5-7-------2-2-5-5-7/4-4--4-5-55555-5/4/5/4----------|
PM----------         ---------       ---------          -----

[Chorus]

e|---------------------------------------------------------------------------|
B|---------------------------------------------------------------------------|
G|----------------------7-7--7---------------6-6--6/7-7--7-------------------|
D|-4-4--4/9-9--9\7-7--7-7-7--7-4-4--4/9-9--9-6-6--6/7-7--7-------------------|
A|-4-4--4/9-9--9\7-7--7-5-5--5-4-4--4/9-9--9-4-4--4/5-5--5-------------------|
E|-2-2--2/7-7--7\5-5--5--------2-2--2/7-7--7---------------------------------|

e|---------------------------------------------------------------------------|
B|---------------------------------------------------------------------------|
G|----------------------7-7--7---------------6-6--6-7\6/7\6------------------|
D|-4-4--4/9-9--9\7-7--7-7-7--7-4-4--4/9-9--9-6-6--6-7\6/7\6------------------|
A|-4-4--4/9-9--9\7-7--7-5-5--5-4-4--4/9-9--9-4-4--4-5\4/5\4------------------|
E|-2-2--2/7-7--7\5-5--5--------2-2--2/7-7--7---------------------------------|

Move directly into the bridge 

{Bridge}Slower that the rest of the song

e|---------------------------------------------------------------------------|
B|---------------------------------------------------------------------------|
G|---------------------------------------------------------------------------|
D|---------------------------------------------------------------------------|
A|--------3-3-3-3-3-5-5-5-6-6-6-6-6-------3-3-3-3-3-5-5-5-6-6-6-6-6----------|
E|--5-5-5---------------------------5-5-5------------------------------------|

e|--------------------------------------------------------------------------------------------------|
B|--------------------------------------------------------------------------------------------------|
G|--------5-5-5-5-5-7-7-7-8-8-8-8-8-------5-5-5-5-5-7-7-7-8-8-8-8-8-------5-5-5-5-5-7-7-7-8-8-8-8-8-|
D|--7-7-7-5-5-5-5-5-7-7-7-8-8-8-8-8-7-7-7-5-5-5-5-5-7-7-7-8-8-8-8-8-7-7-7-5-5-5-5-5-7-7-7-8-8-8-8-8-|
A|--7-7-7-3-3-3-3-3-5-5-5-6-6-6-6-6-7-7-7-3-3-3-3-3-5-5-5-6-6-6-6-6-7-7-7-3-3-3-3-3-5-5-5-6-6-6-6-6-|
E|--5-5-5---------------------------5-5-5---------------------------5-5-5---------------------------|

e|-----------------------------------|
B|-----------------------------------|
G|-----------------------------------|
D|-7-7-X-X-7-7-X-X-6-6-X-X-6-6-X-X---|
A|-7-7-X-X-7-7-X-X-6-6-X-X-6-6-X-X---|
E|-5-5-X-X-5-5-X-X-4-4-X-X-4-4-X-X---|

e|----------------------------------------------------------------------------------------------|
B|----------------------------------------------------------------------------------------------|
G|--------5-5-5-5-5-7-7-7-8-8-8-8-8-------5-5-5-5-5-7-7-7-8-8-8-8-8-------5-5-5-5-5-7-7-7-88888-|
D|--7-7-7-5-5-5-5-5-7-7-7-8-8-8-8-8-7-7-7-5-5-5-5-5-7-7-7-8-8-8-8-8-7-7-7-5-5-5-5-5-7-7-7-88888-|
A|--7-7-7-3-3-3-3-3-5-5-5-6-6-6-6-6-7-7-7-3-3-3-3-3-5-5-5-6-6-6-6-6-7-7-7-3-3-3-3-3-5-5-5-66666-|
E|--5-5-5---------------------------5-5-5---------------------------5-5-5-----------------------|

e|-----------------------------------|
B|-----------------------------------|
G|-----------------------------------|
D|-7-7-X-X-7-7-X-X-6-6-X-X-7\6/7\6---|
A|-7-7-X-X-7-7-X-X-6-6-X-X-7\6/7\6---|
E|-5-5-X-X-5-5-X-X-4-4-X-X-5\4/5\4---|

e|-----------------------------------------------------------------------------|
B|-----------------------------------------------------------------------------|
G|-----------------------------------------------------------------------------|
D|-4-4-7-7-9\6-6--6-------7\6/7\6----------------------------------------------|
A|-4-4-7-7-9\6-6--6-------7\6/7\6----------------------------------------------|
E|-2-2-5-5-7\4-4--4-------5\4/5\4----------------------------------------------|
PM-----------------

{Last Chorus}

e|---------------------------------------------------------------------------|
B|---------------------------------------------------------------------------|
G|----------------------7-7--7---------------6-6--6/7-7--7-------------------|
D|-4-4--4/9-9--9\7-7--7-7-7--7-4-4--4/9-9--9-6-6--6/7-7--7-------------------|
A|-4-4--4/9-9--9\7-7--7-5-5--5-4-4--4/9-9--9-4-4--4/5-5--5-------------------|
E|-2-2--2/7-7--7\5-5--5--------2-2--2/7-7--7---------------------------------|

e|---------------------------------------------------------------------------|
B|---------------------------------------------------------------------------|
G|----------------------7-7--7---------------6-6--6-7\6/7\6------------------|
D|-4-4--4/9-9--9/7-7--7-7-7--7-4-4--4/9-9--9-6-6--6-7\6/7\6------------------|
A|-4-4--4/9-9--9/7-7--7-5-5--5-4-4--4/9-9--9-4-4--4-5\4/5\4------------------|
E|-2-2--2/7-7--7/5-5--5--------2-2--2/7-7--7---------------------------------|

[Outro)

e|---------------------------------------------------------------------------|
B|---------------------------------------------------------------------------|
G|-4-4-7-7-9-6-6--6-4-4-7-7-9-12-12\11-4-4-7-7-9-6-6--6-77777-7-6-7-6--------|
D|---------------------------------------------------------------------------|
A|---------------------------------------------------------------------------|
E|---------------------------------------------------------------------------|
                                                        PM---

e|-4-4-7-7-9-6-6--6-4-4-7-7-9-12-12\11-4-4-7-7-9-6-6--6-77777-7-6-7-6-4------|
B|---------------------------------------------------------------------------|
G|---------------------------------------------------------------------------|
D|---------------------------------------------------------------------------|
A|---------------------------------------------------------------------------|
E|---------------------------------------------------------------------------|
                                                        PM---

************************************

| x   Dead note
| /   Slide up
| \   Slide down
| PM  Palm mute

************************************
Suggest correction
Give kudos to tab author, rate the tab!
1 2 3 4 5
comments
print report bad tab
guest
You may want to rate the tab now too:
select rating
Wanna post a correction for this tab? Suggest correction