Oops, an error
Loading. Please wait.

Looking Good Is All That Matters tab

621 views 1 this week
1 commentread comment
1 2 3 4 5
x 3
add to favorites
×
Save as Personal and add changes to this tab that will be seen only by you. Learn more ›
×
You can save this tab as Personal to edit and correct it or add notes. All changes will be seen only by you. Learn more »
launch autoscroll
font size
0
reset
how to read this tab
guitar tuner
edit
Autoscroll
slow
fast
+/-
esc
set tempo
stop
Artist: Guttermouth
Song: Looking Good is All That Matters
Album: Covered with Ants
Tabbed by: Luke Rounda 

One of Guttermouth's apparently very unappreciated songs. I haven't seen
a tab for it anywhere, and it's not one that many people talk about, so,
here we are. This is my first tab; please don't injure me.

Crank it up! Screaming punk distortion throughout.

   -  play the harmonic on fret 'x'
  h    -  hammer-on
  p    -  pull-off
  x    -  mute string
  ~    -  let ring
  PM   -  palm mute

Standard Tuning E A D G B E

  intro/main riff
e|-----------|---------------------------------------|
B|-----------|---------------------------------------|
G|-----------|-----6-h7p6---6-h7p6-------------------| Play 6x for intro,
D|-----------|---7--------7----------6-7----4-5p4----|   4x for interlude
A|-----------|---------------------7------5----------|
E|-<7>~~~~~~-|---------------------------------------|

     Basically, hit the 7th fret harmonic and let it ring for a few bars,
     then punch in with the song's powerhouse main riff, which is mostly
     shown here. This should give you a pretty good idea of how it goes. It
     took me a few tries to get the picking rhythm right, but once you get
     it going, WHOO!

  verse
e|-----------------------------------------|
B|-----------------------------------------|
G|---------------7-------------9-----------|
D|--7------5-----7------7------9-----12----|
A|--7------5-----5------7------7-----12----|
E|--5------3------------5------------10----|

  chorus
e|-----------------------|
B|-----------------------|
G|--7---------------7----|
D|--7--7------5-----7----|
A|--5--7------5-----5----|
E|-----5------3----------|

     Repeat as necessary, then back to the main riff.


  bridge/solo
e|-------------------------------------------------------------------------|
B|------------------------10--10--9--8--8--9--10--10-----------------------|
G|------------------------9---9---8--7--7--8--9---9------------------------|
D|--77\6666\55/6666/77-----------------------------------------------------|
A|--77\6666\55/6666/77-----------------------------------------------------|
E|--55\4444\33/4444/55-----------------------------------------------------|
  PM...................

     The rhythm is somewhat shown, but you'll have to figure out the exact
     strum yourself. Suffice it to say IT'S FAST.

     The song ends with the first part of the main riff (on the D and G 
strings)
     being played over and over.

This is all my own original work.
Comments/questions/corrections can be sent to vluker@notus.com
I'd appreciate any feedback.
Suggest correction
Creating personal tab
Creating personal tab
You can edit any tab online and save it as your Personal.

You can edit, replace or remove any tab part or add personal notes – all changes will be seen only by you.

Personal tabs can be accessed anytime from any device, even offline.
Learn more »
Give kudos to tab author, rate the tab!
1 2 3 4 5
comments
print report bad tab
1 comment total.
0 reply
LukaSt 36 Mar 11, 2012 10:13 AM

I think there are some errors, but i could be wrong.
Chord progression in verse: ( POWERCHORDS )

A E(1) D - first few times
A E(2) D - last time

E(1) first octave E(2) second octave. If you do not know chords, google em.
Chord progression in chorus :

A G D

And that palmuting part is :

D|--7-77777\5-55555/7-77777---------------------------------
A|--7-77777\5-55555/7-77777---------------------------------
E|--5-55555\3-33333/5-55555---------------------------------
PM...................

Otherwise its cool. Still 5 stars from me!

guest
Wanna post a correction for this tab? Suggest correction