Oops, an error
Loading. Please wait.

Stuff That Works Tab

97 views 6 this week
no commentswrite comment
1 2 3 4 5
3 more votes to show rating
add to favorites
launch autoscroll
font size
0
reset
how to read this tab
guitar tuner
Autoscroll
slow
fast
+/-
esc
set tempo
stop
Help us to improve Ultimate-Guitar.com Take our survey!
×
Author
Standard Tuning


[Intro]

e|--------------0------------------------0-----------------------|
B|--------------1------------------------1-----------------------|
G|--------------0-------------0--0h2--0--0-----------------------|
D|------0—0h2---2--0--2--3---------------2-----0—0h2---0--0h2--0-|
A|---3----------3------------------------3--3--------------------|
E|--------------x------------------------x-----------------------|

e|-----------0--------------------1----------0-------------------|
B|-----------1--1--0-----------1-------------1-------------------|
G|-----------0--------2-----2--------0h2--0--0-------------------|
D|-----0-----2-----------3-------------------2-----0--0h2--------|
A|--2-----3--3-------------------------------3--3----------------|
E|-----------x-------------------------------x-------------------|

e|---------------------------------------------------------------|
B|---------------------------------------------------------------|
G|---------------------------------------------------------------|
D|--0--0h2--0--2p0-----------------------------------------------|
A|------------------2--3-----------------------------------------|
E|---------------------------------------------------------------|



************************************

| x  Dead note
| h  Hammer-on
| p  Pull-off

************************************
Suggest correction
Give kudos to tab author, rate the tab!
1 2 3 4 5
comments
print report bad tab
guest
You may want to rate the tab now too:
select rating
Wanna post a correction for this tab? Suggest correction