Oops, an error
Loading. Please wait.

Abyss Of Woe Bass Tab

by GWAR
584 views 1 this week
1 commentread comment
1 2 3 4 5
2 more votes to show rating
add to favorites
launch autoscroll
font size
0
reset
guitar tuner
Autoscroll
slow
fast
+/-
esc
set tempo
stop
Help us to improve Ultimate-Guitar.com Take our survey!
×
Author
-------------------------------------------------------------------------------
Abyss of Woe - GWAR
-------------------------------------------------------------------------------

  Intro, 1:02, 2:47
G|---------------------------------------------------------------|
D|---------------------------------------------------------------|
A|7-7-7-8-8-8-7-7-5-5-5-7-7-7-7-7-7-7-7-8-8-8-7-7-5-5-5-3-3-3-3-3|
E|---------------------------------------------------------------|

  0:47, 1:32, 2:17
G|---------------------------------------------------------------|
D|---------------------------------------------------------------|
A|3-5-7-7-7-7-7-7-7-7-7-7-7-7-7-7-3-5-7-7-7-7-7-7-7-7-7-7-7-7-7-7|
E|---------------------------------------------------------------|

  1:47
G|---------------------------------------------------------------|
D|---------------------------------------------------------------|
A|---------------------------------------------------------------|
E|5-5-5-4-4-4-3-3-3-3-3-3-3-3-3-0-6-6-6-5-5-5-4-4-4-4-4-4-4-4-4-0|

  2:32
G|---------------------------------------------------------------|
D|---------------------------------------------------------------|
A|-----0-0-3-3-0-0-3-3-0-----0-0-3-3-0-5-3-0-3-------------------|
E|-0-3-------------------0-3-------------------0-3---------------|

  3:02
G|---------------------------------------------------------------|
D|---------------------------------------------------------------|
A|3-5-----------------------------3-5----------------------------|
E|----0-0-0-0-0-0-0-0-0-0-0-0-0-0-----0-0-0-0-0-0-0-0-0-0-0-0-0-0|

  3:17
G|---------------------------------------------------------------|
D|---------------------------------------------------------------|
A|--7-8-7-5-3-5--------------------------------------------------|
E|--------------0------------------------------------------------|
Suggest correction
Give kudos to tab author, rate the tab!
1 2 3 4 5
comments
print report bad tab
1 comment total.
0 reply
gallaguitar 94 May 03, 2014 06:36 PM

2:32
G|--------------------------------------------------|-------------|
D|--------------------------------------------------|-------------|
A|---------3---3-----3---3---------3---3-----5-3----|-3-5---------|
E|-0-3-5-5---5---5-5---5---5-0-3-5---5---5-5-----5--|-------------|
2nd time add

guest
You may want to rate the tab now too:
select rating
Wanna post a correction for this tab? Suggest correction