Oops, an error
Loading. Please wait.

Anti Anti Christ Bass Tab

by GWAR
496 views 1 this week
no commentswrite comment
1 2 3 4 5
3 more votes to show rating
add to favorites
launch autoscroll
font size
0
reset
guitar tuner
Autoscroll
slow
fast
+/-
esc
set tempo
stop
Help us to improve Ultimate-Guitar.com Take our survey!
×
Author
-------------------------------------------------------------------------------
Anti Anti Christ - GWAR
-------------------------------------------------------------------------------


  Intro, 0:09, 2:05
G|----------------------------------------------------------|
D|----------------------------------------------------------|
A|--------1-------1--------1-------1---------1-------1------|
E|--0-0-0---0-0-0----0-0-0---0-0-0-----0-0-0---0-0-0--------|

G|----------------------------------------------------------|
D|----------------------------------------------------------|
A|--------1-------1-1---------------------------------------|
E|--0-0-0---0-0-0-------------------------------------------|

  0:26, 0:48, 1:48
G|----------------------------------------------------------|
D|----------------------------------------------------------|
A|--------1-------1---------1----------------1-------1-1----|
E|--0-0-0---0-0-0-----0-0-0---0-0-3-1--0-0-0---0-0-0--------|

  0:43, 1:05, 2:22
G|----------------------------------------------------------|
D|----------------------------------------------------------|
A|------4-4-------------------------------------------------|
E|1-1-1-----4-4-4-3-3-3-4-4-3-3-3---------------------------|

  1:22
G|----------------------------------------------------------|
D|----------------------------------------------------------|
A|-----2-2-3-3-2-2-----2-2-----2-3--------------------------|
E|-0-0-------------0-0-----0-0------------------------------|

  1:39
G|----------------------------------------------------------|
D|----------------------------------------------------------|
A|-----3----3------3----3-----3----3-----3------3---3-------|
E|-0-0----0----0-0----0---0-0----0---0-0----0-0---0---------|
Suggest correction
Give kudos to tab author, rate the tab!
1 2 3 4 5
comments
print report bad tab
guest
You may want to rate the tab now too:
select rating
Wanna post a correction for this tab? Suggest correction