Oops, an error
Loading. Please wait.

Apes Of Wrath Tab

678 views 1 this week
3 commentsread comments
1 2 3 4 5
1 last vote to show rating
add to favorites
launch autoscroll
font size
0
reset
how to read this tab
guitar tuner
×
Best way to learn
"Apes Of Wrath"
Autoscroll
slow
fast
+/-
esc
set tempo
stop
Author
Difficulty
  follow
intermediate
Apes of Wrath - GWAR

. - Palm Mute

Intro/chorus riff

eb|-------------------------------------------------|
Bb|-------------------------------------------------|
Gb|-------------------------------------------------|
Db|--5-------------------------5--------------------|
Ab|--3-5-5---------3-5-6-5-3---3-5-5--------3-5-6---|
Eb|----3-3--3-333--1-3-4-3-1-----3-3-3-333--1-3-4---|
            . ...                    . ...

verse riff 1

eb|---------------------------------------|
Bb|---------------------------------------|
Gb|---------------------------------------|
Db|--5--------------------5---------------|
Ab|--3-5-5----3-5-6-5-3---3-5-5---3-5-6---|
Eb|----3-3----1-3-4-3-1-----3-3---1-3-4---|

verse riff 2

eb|------------------------------------------------------------|
Bb|------------------------------------------------------------|
Gb|------------------------------------------------------------|
Db|------------------------------------------------------------|
Ab|--2--------------2--------------2-------------5-5-5--3-3-3--|
Eb|--0--0-0-0-0000--0--0-0-0-0000--0-0-0-0-0000--3-3-3--1-1-1--|


Outro riff


eb|-------------------------------------------------|
Bb|-------------------------------------------------|
Gb|-------------------------------------------------|
Db|-10- about 16 of this chord----------------------|
Ab|-8-----------------------------------------------|
Eb|-------------------------------------------------|


eb|--------------------------------------------------|
Bb|--------------------------------------------------|
Gb|----9---------9---------9/10-----9----------------|
Db|---------9---------9------------------9-----10----|
Ab|-77---77---77---77---77-------77---77---77--8---8-| of this chord
Eb|--------------------------------------------------|
Suggest correction
Give kudos to tab author, rate the tab!
1 2 3 4 5
comments
print report bad tab
3 comments total.
0 reply
|SpitFire| 418 Apr 06, 2006 03:37 AM

good job, nice tab

0 reply
Tyler Durden 20 Jul 30, 2007 12:43 PM

very close just missing some chords at the end riff

eb|--------------------------------------------------------|
Bb|--------------------------------------------------------|
Gb|----9---------9---------9/10-----9---------add this:----|
Db|---------9---------9------------------9----77777-9/10\9-|
Ab|-77---77---77---77---77-------77---77------55555-7/8\7--|
Eb|--------------------------------------------------------|

0 reply
Toguro 31 May 26, 2008 05:14 PM

You missed the solo, but is good anyway.
And if you or anyone can tab the solo plz do it.
Thanx

guest
You may want to rate the tab now too:
select rating
Wanna post a correction for this tab? Suggest correction