Oops, an error
Loading. Please wait.

Baby Dick Fuck Bass Tab

by GWAR
707 views 1 this week
2 commentsread comments
1 2 3 4 5
3 more votes to show rating
add to favorites
launch autoscroll
font size
0
reset
guitar tuner
Autoscroll
slow
fast
+/-
esc
set tempo
stop
Help us to improve Ultimate-Guitar.com Take our survey!
×
"Baby Dick Fuck" by GWAR. Otherwise known as the ninth track on "This
Toilet Earth."
	Intro:
	A--------------------------------------------------------------
	E-2222--2222--2225-----0-0-0-0-0-0-0-0-0-0-0-0-0-0-0-0-0-0-0---
	Verse:
	A-2-2-2-25-5-2-2-2-20-0-2-2-2-25-5-2-2-2-20-0
	That part that goes like this:
	E-2222--2222--2222--2225---2222--2222--2222--0--1--


--- Louann Bishop
--- bishopla@earthlink.net
--- EarthLink: It's your Internet.
Suggest correction
Give kudos to tab author, rate the tab!
1 2 3 4 5
comments
print report bad tab
2 comments total.
0 reply
Chestaufissen 112 Jul 05, 2005 12:00 AM

Hey Look At This

1111111--1---1--11111---111111
---1-----1---1----1-----1-----
---1-----11111----1-----111111
---1-----11111----1----------1
---1-----1---1----1----------1
---1-----1---1--11111---111111

-11--11111--111111--111---1---11111----11--
--11-1---1--1----1--1-1--1----1----1--11---
-----1---1--1----1--1-1--1----1----1-------
-----16661--111111--1-1--1----1----1-------
-----1---1--1----1--1--1-1----1----1-------
-----11111--1----1--1---11----11111--------

---1111111---111111
------1------1-----
------1------111111
------1-----------1
------1-----------1
---1111111---111111

--111111---1---1--1--------1-----
--1----1---1---1--1--------1-----
--166666---1---1--1--------1-----
--1----1---1---1--1--------1-----
--1----1---11111--1--------1-----
--111111---11111--111111---111111


-11111---1--1---1---1---1---1111111---
-1-------1--1----1--1--1-------1------
-11111---1111--11111111111-----1------
-----1---1111--11111111111-----1------
-----1---1--1----1--1--1-------1------
-11111---1--1---1---1---1------1------

0 reply
guitar_doom 10 Jun 28, 2006 12:07 PM

i agree

guest
You may want to rate the tab now too:
select rating
Wanna post a correction for this tab? Suggest correction