Oops, an error
Loading. Please wait.

Beat You To Death Bass Tab

by GWAR
383 views 3 this week
3 commentsread comments
1 2 3 4 5
2 more votes to show rating
add to favorites
launch autoscroll
font size
0
reset
guitar tuner
Autoscroll
slow
fast
+/-
esc
set tempo
stop
Help us to improve Ultimate-Guitar.com Take our survey!
×
Author
Difficulty
intro                             (3x)
|-------------------------------------|
|-------------------------------------|
|-5-7-7-5-7-7-5-7-5--8----------------|
|-----------------------0-0-0-0-0-0-0-|

|-----------------------------|
|--------------2p0------------|
|-5-7-7-5-7-7------3p2p0------|
|------------------------2b-0-|

verse                              (4x)
|-------------------------------------|
|-------------------------------------|
|-5-7-7-5-7-7-5-7-5--8----------------|
|----------------------0-0-0-0-0-0-0--|

chorus 1
|----------------------------------------------------------------|
|----------------------------------------------------------------|
|----------------------------------------------------------------|
|-6-6-6-6-6-6--5-5-3-1--0-0-0-0-1-0-0-0-0-1-0-0-0-0-1-0-0-0-0-0-0|

|-------------------------------------------------------------------|
|-----------------------------------------------------2p0-----------|
|---------------------------------------------------------3p2p0-----|
|-6-6-6-6-6-6-6--5-5-3-1--0-0-0-0-0-0-1-0-0-0-0-0-0-1-----------2b-0|

verse

chorus 2                                                      (3x)
|-----------------------------------------------------------------|
|-----------------------------------------------------------------|
|-----------------------------------------------------------------|
|-6-6-6-6-6-6--5-5-3-1--0-0-0-0-1-0-0-0-0-1-0-0-0-0-1-0-0-0-0-0-0-|

|--------------------------------------------------------------------|
|------------------------------------------------------2p0-----------|
|----------------------------------------------------------3p2p0-----|
|-6-6-6-6-6-6--5-5-3-1--0-0-0-0-0-0-1-0-0-0-0-0-0-0-1------------2b-0|

break
                                                      (2x)
|---------------------------------------------------------|
|---------------------------------------------------------|
|-5-7--------------5-7-10~---5-7--------------5-7--8~-----|
|-----0-0-0-0-0-0-----------------0-0-0-0-0-0-------------|

verse
chorus 2

interlude 1                               (6x)
|--------------------------------------------|
|--------------------------------------------|
|-5-7-5-7-5-7-5-7-5--8-5-7-5-7-5-7-5--8-5-6~-|
|--------------------------------------------|

interlude 2
|---------------------------------------------------------|
|---------------------------------------------------------|
|-----------------1~-----------------------1~-------------|
|-6~--5~-3-1-0-0------0-1-3-4-3-1-0--0-0-0----0-1-3-4-3-1~|
                                           
                                             (3x)
|-------------------------------------------------|
|-------------------------------------------------|
|------1~----------------------1~-----------------|
|-0-0-----0-1-3-4-3-1-0--0-0-0-----0-1-3-4-3-1~---|

per solo
|-------------------------------------|
|-------------------------------------|
|-------------------------------------|
|-0-1-3-4-3-1~--0-1-3-4-3-1~--0-0-0-6-|

under solo                        (8x)
|------------------------------------|
|------------------------------------|
|-5-7-----5-7-10~----5-7-----5-7--8~-|
|------------------------------------|

outro                 (3x)
|-------------------------|
|-------------------------|
|-5-7-7-5-7-7-5-7-7-5-7-7-|
|-------------------------|

|--------------------------------|
|--------------2p0---------------|
|-5-7-7-5-7-7------3p2p0---------|
|------------------------2b-0----|

thats it enjoy please rate
Suggest correction
Give kudos to tab author, rate the tab!
1 2 3 4 5
comments
print report bad tab
3 comments total.
0 reply
KilljoyBassist 193 Jul 11, 2013 01:17 PM

Whats the tuning to this song?

0 reply
awsomebassest67 219 Nov 24, 2013 02:04 AM

its E standerd

0 reply
michael medford 10 Mar 28, 2014 06:21 PM

nice tab sounds good to me

guest
You may want to rate the tab now too:
select rating
Wanna post a correction for this tab? Suggest correction