Oops, an error
Loading. Please wait.

Biledriver Tab

version 1
version 1

Whole song

Interactive

by GWAR
742 views 1 this week
no commentswrite comment
1 2 3 4 5
please rate
add to favorites
launch autoscroll
font size
0
reset
how to read this tab
guitar tuner
Tab Pro tools
  • play this tab
  • loop segment
  • change instrument
  • show fretboard
  • metronome
×
Best way to learn
"Biledriver"
Autoscroll
slow
fast
+/-
esc
set tempo
stop
Contributor
Difficulty
Tuning
intermediate
D# G# C# F# A# D#
-------------------------------------------------------------------------------
                          Biledriver - GWAR
-------------------------------------------------------------------------------
Tabbed by: Chris "|SpitFire|" Conner

Tuning: E-Flat

NOTICE! I used the "Live From Mt. Fuji" Version to tab the song, so there
might be some differences.


Intro:
  [ Rest while bass plays ]
eb---------------------------------------------------|
Bb---------------------------------------------------|
Gb---------------------------------------------------|
Db-----------------------------10-10-10-10-10-10-10--|
Ab-----------------------------10-10-10-10-10-10-10--|
Eb------------------------------8--8--8--8--8--8--8--|x2


Main Riff A:

There are two ways you can play the main riff [I prefer the second]:
1. Barre your index finger over the 7th Fret

eb---------------------------------------------------------------------------|
Bb---------------------------------------------------------------------------|
Gb---------------------------------------------------------------------------|
Db----------7-------10-------7---------------7-------10-10-10-10-10-10-10-10-|
Ab--7-9-9-9---9-9-9----9-9-9---9-9-9-7-9-9-9---9-9-9-10-10-10-10-10-10-10-10-|
Eb----------------------------------------------------8--8--8--8--8--8--8--8-|

2. Move your index finger from the 7th to the 9th fret, play on the Ab string only.
    ^ v ^ v
eb------------------------------------------------------------------------------|
Bb------------------------------------------------------------------------------|
Gb------------------------------------------------------------------------------|
Db-------------------10---------------------------------10-10-10-10-10-10-10-10-|
Ab--7-9-9-9-12-9-9-9----9-9-9-12-9-9-9-7-9-9-9-12-9-9-9-10-10-10-10-10-10-10-10-|
Eb-------------------------------------------------------8--8--8--8--8--8--8--8-|


Main Riff B:

Main Riff B is the same as Main Riff A, but you play it 1 string and 2 frets higher,
that means you play the fifth of the actual main riff. Flattus does this at various
points in the song. I am going to describe it with the second method, but again it's
your choice.

eb------------------------------------------------------------------------|
Bb------------------------------------------------------------------------|
Gb-------------------------12---------------------------------------------|
Db--9-11-11-11-14-11-11-11----11-11-11-14-11-11-11-9-11-11-11-14-11-11-11-|
Ab------------------------------------------------------------------------|
Eb------------------------------------------------------------------------|


Pre-Chorus:
Repeat 4 Times

|Flattus [Tremolo Picking and Wah-Effect]
|eb--------------------------------------------------------------------------------|
|Bb--------------------------------------------------------------------------------|
|Gb--------------------------------------------------------------------------------|
|Db------------------------------------10----------------------9-------------------|
|Ab--9-----------------------------------------------------------------10----------|
|Eb--------------------------------------------------------------------------------|
|
|BalSac
|eb--------------------------------------------------------------------------------|
|Bb--------------------------------------------------------------------------------|
|Gb--------------------------------------------------------------------------------|
|Db------------------------------------10-10-10-10-10-10-10-10-9-9-9-9-------------|
|Ab--7-9-9-9-12-9-9-9-7-9-9-9-12-9-9-9---------------------------------10-10-10-10-|
|Eb--------------------------------------------------------------------------------|

At some points in the song, Flattus various the Pre-Chorus too:

Flattus
eb-------------------------------------------------------------------------|
Bb-------------------------------------------------------------------------|
Gb-------------------------------------------------------------------------|
Db-----------10-9---------------------10-----------------------------------|
Ab--9-------------10-9-10-12-9---------------------------------9-------10--|
Eb-------------------------------------------------------------------------|


Chorus:

eb-----------------------------------------------|
Bb-----------------------------------------------|
Gb-------5---4----------5---4--------------------|
Db--4----5---4--5--4----5---4--5--7----8---7--5--|
Ab--4----3---2--5--4----3---2--5--7----8---7--5--|
Eb--2-----------3--2-----------3--5----6---5--3--|x2


Solo Rythm:

eb----------------------------------------------------------|
Bb----------------------------------------------------------|
Gb----------------------------------------------------------|
Db-----------------------3-------------------------3--3--3--|
Ab-----------------------1-------------------------1--1--1--|Repeat this under
Eb-0-0-2-2-3-3-2-2-0-0-0-----0-0-2-2-3-3-2-2-0-0-0----------|the solo
   . . . . . . . . . . .     . . . . . . . . . . .

Solo:

eb-------------------------12---------12----12----12----12------------------------|
Bb------------------11-------------------12----12----12----12---------------------|
Gb--------------------------------------------------------------14----14----------|
Db--8--------------------------------------------------------------14----14\8-----|
Ab-------8--7---------------------7--------------------------------------------8--|
Eb--------------------------------------------------------------------------------|

eb--------------------12--|
Bb----------------10------|
Gb------------9-----------|
Db-------7----------------|
Ab--7---------------------|
Eb------------------------|



Because there are so many Variations in this song, I am going to describe it with
a kind of timeline, I hope it is not too confusing.


Flattus
+----------+----------+----------+----------+----------+----------+----------+----------+
|  Intro   |MainRiff A|MainRiff A|MainRiff B|MainRiff B|Pre-Chorus|MainRiff A|MainRiff A|
+----------+----------+----------+----------+----------+----------+----------+----------+
|  Intro   |MainRiff A|MainRiff A|MainRiff A|MainRiff A|Pre-Chorus|MainRiff A|MainRiff A|
+----------+----------+----------+----------+----------+----------+----------+----------+
BalSac

Flattus
+----------+----------+----------+----------+----------+----------+----------+----------+
|MainRiff B|MainRiff B|Pre-Chorus|  Chorus  |          |          |   Solo   |Pre-Chorus|
+----------+----------+----------+----------+----------+----------+----------+----------+
|MainRiff A|MainRiff A|Pre-Chorus|  Chorus  |Solo Rythm|Solo Rythm|Solo Rythm|Pre-Chorus|
+----------+----------+----------+----------+----------+----------+----------+----------+
BalSac

Flattus
+----------+--------------+----------+
|  Chorus  | Chorus w/Wah |  Intro   |
+----------+--------------+----------+End on F5
|  Chorus  |    Chorus    |  Intro   |
+----------+--------------+----------+
BalSac

| /  slide up
| \  slide down
| h  hammer-on
| p  pull-off
| ~  vibrato
| +  harmonic
| x  Mute note
===============================================================================
comments
We did not receive enough feedback on this tab! Please rate:
print report bad tab
1 2 3 4 5
I want to post or [tab]
guest
You may want to rate the tab now too:
select rating
Please do not post tabs as comments. Select "correction" instead!