Oops, an error
Loading. Please wait.

Bonesnapper Tab

version 1
version 1

Whole song

Interactive

by GWAR
2,260 views 3 this week
no commentswrite comment
1 2 3 4 5
please rate
add to favorites
launch autoscroll
font size
0
reset
how to read this tab
guitar tuner
Autoscroll
slow
fast
+/-
esc
set tempo
stop
Help us to improve Ultimate-Guitar.com Take our survey!
×
Author
Difficulty
Tuning
intermediate
D# G# C# F# A# D#
-------------------------------------------------------------------------------
			    Bonesnapper - GWAR
-------------------------------------------------------------------------------
Tabbed by: Chris "SpitFire" Conner
Tuning: E-Flat


Intro[clean]:

Guitar 1:

eb-0---3---2-3-0--0-2-3--3/5-5--3-2-----------|
Bb--------------------------------------------|

eb-0---3---2-3-0--0h2--2h3-3h5-5--3-2---------|
Bb--------------------------------------------|

eb-0---3---2-3-0--0-2-2-2-3-5-5-3--5-7-7-7----|
Bb--------------------------------------------|

eb-8-8-8--7-7-7--8-8-8--7-7-7--5--5-7--7-5--3-2-0---|
Bb--------------------------------------------------|


Guitar 2:

eb-----------------|----------------------|-----------------|-----------------|
Bb---------8-------|----------------------|-----------------|-----------------|
Gb-----9-----9-----|----------------------|-----------------|-----------------|
Db---9---------9---|------10----9-10-9----|-----9---9---9---|-----7---7-------|
Ab-7-----7-------7-|---10----10--------10-|---9---9---9---9-|---7---7---7-----|
Eb-0---------------|-8--------------------|-7---------------|-5-----------3-2-|


eb-------12+---------------------------|
Bb--12+--------------------------------|
Gb--------------12Bb------[Pickscrape]-|
Db-------------------------------------|
Ab-------------------------------------|
Eb-------------------------------------|


Verse:

Guitar 1

eb-----------------------|------------------------|
Bb-----------------------|------------------------|
Gb--9---12-11-7-9---5----|--9---12-11-9--7---4----|
Db--9---12-11-7-9---5----|--9---12-11-9--7---4----|
Ab--7---10--9-5-7---3----|--7---10--9-7--5---2----|
Eb---000---------000-000-|---000----------000-000-| x4

Guitar 2

eb---------------------|------------------------|
Bb---------------------|------------------------|
Gb--9--12-11-7-9--5-5--|--9--12-11-9--7-7--4-4--|
Db--9--12-11-7-9--5-5--|--9--12-11-9--7-7--4-4--|
Ab--7--10--9-5-7--3-3--|--7--10--9-7--5-5--2-2--|
Eb---------------------|------------------------| x2

eb---------------------|---------------------------|
Bb---------------------|---------------------------|
Gb--9--12-11-14-9--5-5-|--9--12-11-14-12-12-11-11--|
Db--x---x--x--x-x--x-x-|--x---x--x--x--x--x--x--x--|
Ab--7--10--9-12-7--3-3-|--7--10--9-12-10-10--9--9--|
Eb---------------------|---------------------------| x2


Chorus:

eb-------------|-------------|-------------|-------------|
Bb-------------|-------------|-------------|-------------|
Gb-------------|-------------|-------------|-------------|
Db-4-----4-2-2-|-4-----4-5-7-|-4-----4-2-2-|-------2222--|
Ab-2-----2-0-0-|-2-----2-3-5-|-2-----2-0-0-|-5555--0000--|
Eb---0000------|---0000------|---0000------|-3333--------| x2


Break:

 -repeat-            -repeat-
eb--------|----------|--------|----------|
Bb--------|----------|--------|----------|
Gb--------|-5-4-7-5--|--------|-5-4-7-9--|
Db--------|-5-4-7-5--|--------|-5-4-7-9--|
Ab--------|-3-2-5-3--|--------|-3-2-5-7--|
Eb-3-0-0--|----------|-3-0-0--|----------|

eb---------------------------------------|
Bb---------------------------------------|
Gb-9---------12-7-9-5-9---------5-5--7-7-|
Db-9---------12-7-9-5-9---------5-5--7-7-|
Ab-7---------10-5-7-3-7---------3-3--5-5-|
Eb--000000000----------000000000---------|x2
                
 -repeat-
eb--------|-----------|
Bb--------|-----------|
Gb--------|-5-5--7-7--|
Db--------|-5-5--7-7--|
Ab--------|-3-3--5-5--|
Eb-3-0-0--|-----------|


Bridge:

Guitar 1:

eb-------------------------|------------------------|
Bb-------------------------|------------------------|
Gb-9-------------9---------|--9-----------7777-4444-|
Db-9-------------9---------|--9-----------7777-4444-|
Ab-7-------------7---------|--7-----------5555-2222-|
Eb-------------------------|------------------------|

eb-------------------------|------------------------|
Bb-------------------------|------------------------|
Gb-9----12-7-9-5-9---5~----|--9-----------7777-5555-|
Db-9----12-7-9-5-9---5~----|--9-----------7777-5555-|
Ab-7----10-5-7-3-7---3~----|--7-----------5555-2222-|
Eb-------------------------|------------------------|


Guitar 2:

eb-------------------------|------------------------|
Bb-------------------------|------------------------|
Gb--9----12-11-7-9----5~---|--9----12-11-9--7----4~-|
Db--9----12-11-7-9----5~---|--9----12-11-9--7----4~-|
Ab--7----10--9-5-7----3~---|--7----10--9-7--5----2~-|
Eb---0000---------0000-----|---0000----------0000---|

eb-------------------------|------------------------|
Bb-------------------------|------------------------|
Gb--9----12-11-7-9----5~---|--9----12-11-9--7----4~-|<-with tremolo picking
Db--x-----x--x-x-x----x~---|--x-----x--x-x--x----x~-|  |
Ab--7----10--9-5-7----3~---|--7----10--9-7--5----2~-|<-|
Eb-------------------------|------------------------|


Solo:

while guitar 1 plays the solo, guitar2 plays the verse

NOTE: I didnt tab the solo, but i put it in here, so u dont have to look at
two different sites while playing the song. I'm sorry that i 

cannot credit the one who tabbed it, as it was submitted unregistered.

e|----------12----------------15----------------12----------------15-------|
b|-12-13-12----13-12-12-13-12----13-12-12-13-12----13-12-12-13-12----13-12-|
g|-------------------------------------------------------------------------|
d|-------------------------------------------------------------------------|
a|-------------------------------------------------------------------------|
e|-------------------------------------------------------------------------|

play this part really fast

e|-0-0-0-0-(12)-0-0-0-0-(12)-0-0-0-15-14-12------0-(12)-0-0-0-0-(14)-------|
b|------------------------------------------15~~---------------------------|
g|-------------------------------------------------------------------------|
d|-------------------------------------------------------------------------|
a|-------------------------------------------------------------------------|
e|-------------------------------------------------------------------------|

e|-0-0-0-0-(15)-0-0-0-0-(17)-0-0-0-0-(15)-0-0-0-0-(19)-0-0-0-0-(17)-0-0-0-0|
b|-------------------------------------------------------------------------|
g|-------------------------------------------------------------------------|
d|-------------------------------------------------------------------------|
a|-------------------------------------------------------------------------|
e|-------------------------------------------------------------------------|

e|-(15)-0-0-(17)-0-0-(15)-0-0-(14)-0-0-(15)-0-0-(14)-0-0-(12)-0-0-(14)-0-0-|
b|-------------------------------------------------------------------------|
g|-------------------------------------------------------------------------|
d|-------------------------------------------------------------------------|
a|-------------------------------------------------------------------------|
e|-------------------------------------------------------------------------|

e|-(12)-0-0-(10)-0---------------------------------------------------------|
b|------------------17~~-------------------/13-13~-------------------/15-15~
g|-----------------------------------------/12-12~-------------------/14-14~
d|------------------------14-15-14-15-14-12---------14-15-14-15-14-12------|
a|-------------------------------------------------------------------------|
e|-------------------------------------------------------------------------|

e|-------------------------------------------------------------------------|
b|------------------/13-13~------------------------------------------------|
g|------------------/12-12~--17-16-14--------------------------------------|
d|-14-15-14-15-14-12------------------17~~---------------------------------|
a|-------------------------------------------------------------------------|
e|-------------------------------------------------------------------------|

e|----------------------------------------------------------------b12~~~~~-|
b|-------------------------------------------------------------------------|
g|-palm muted slide up to highest fret picking as fast as you can----------|
d|-------------------------------------------------------------------------|
a|-------------------------------------------------------------------------|
e|-------------------------------------------------------------------------|


Ending:

eb---------------------------------------|		--------
Bb---------------------------------------|		|Intro |
Gb-9---------12-7-9-5-9---------5-5--7-7-|		|Verse |
Db-9---------12-7-9-5-9---------5-5--7-7-|		|Chorus|
Ab-7---------10-5-7-3-7---------3-3--5-5-|		|Verse |
Eb--000000000----------000000000---------|x4		|Chorus|
							|Break |
eb-------------------------------|----------------|	|Bridge|
Bb-------------------------------|----------------|	|Intro |
Gb-5-5--7-7--5-5--7-7--5-5--7-7--|--12-7-9-5-9~~--|	|Solo  |
Db-5-5--7-7--5-5--7-7--5-5--7-7--|--12-7-9-5-9~~--|	|Ending|
Ab-3-3--5-5--3-3--5-5--3-3--5-5--|--10-5-7-3-7~~--|	--------
Eb-------------------------------|----------------|

                   
| /  slide up
| \  slide down
| h  hammer-on
| p  pull-off
| ~  Let Ring
| +  harmonic
| x  Mute note
===============================================================================
Suggest correction
What's this?
You can suggest a correction to this tab. Community and Mods will review your correction and vote to approve or reject it.
comments
We did not receive enough feedback on this tab! Please rate:
print report bad tab
1 2 3 4 5
guest
You may want to rate the tab now too:
select rating
Please do not post tabs as comments. Select "correction" instead!