Oops, an error
Loading. Please wait.

Bring Back The Bomb Bass Tab

version 1
version 1

Whole song

Interactive

by GWAR
2,433 views 6 this week
no commentswrite comment
1 2 3 4 5
3 more votes to show rating
add to favorites
launch autoscroll
font size
0
reset
guitar tuner
Autoscroll
slow
fast
+/-
esc
set tempo
stop
Help us to improve Ultimate-Guitar.com Take our survey!
×
Author
Difficulty
Tuning
intermediate
C G C F A D
Bring Back The Bomb Tab by Gwar
Heres my first bass tab I took me a lil while to do  so try not to be too critical. 
Listen to the song for timings and rythms. And I’m to sure of the order at the end.


Drop C (C,G,C,F,A,D)

h = hammer on
p = pull off
* = Let it ring


Intro
"Hiroshima, a shadow burned in time ...."
F--------------------------------------------------------|
C--------------------------------------------------------|
G-------8h11p8-7h10p7-------8h11p8-7h10p7-8h11p8-7h10p7--|
C-0-0-0---------------0-0-0------------------------------|

F---------------------------------------------------------------------| 6x
C---------------------------------------------------------------------|
G-------8h11p7-7h10p7-------7-7-7-------8-8-8-------------------------| 
C-0-0-0---------------5-5-5-------5-5-5-------------------------------|

Verse 2                                    [Play this part twice]
F--------------------------------------------------------|
C--------------------------------------------------8---8-|
G-8---8---8---2--2--9---8---8---8---8-8-8-11-11-11---11--|
C--------------------------------------------------------|

Go back and play intro 8 more times I think you should end around 00:59 

 (Chorus) "Bring Back the Bomb"

{F--------------------------------------------------------|
{C--------------------------------------------------------|
{G---8-------8-------2-------2---9--8--------8------------|
{C--------------------------------------------------------|

[FILL=1==================================================]
F--------------------------------------------------------|}
C-----------------8----8--11~Vibrato---------------------|} Play {-}4x and 
G--8-8-8-11-11-11---11-----------------------------------|} then play fill 1 
C--------------------------------------------------------|} 7 more times


"AAAGGGGHHH"
Verse 3 (sirens go off)
F--------------------------------------------------------| play 6x I think,
C--------------------------------------------------------| listen for exact 
G--8---8------8---8------8---8------8---8---8*-----------| rhythm
C--------------------------------------------------------|

Introlude (haha I made a pun)

F--------------------------------------------------------|
C--------------------------------------------------------|
G--------------------------------------------------------|
C-0-0-0---------------0-0-0------------------------------|

F---------------------------------------------------------------------| 6x
C---------------------------------------------------------------------|
G---------------------------7-7-7-------8-8-8-------------------------| 
C-0-0-0---------------5-5-5-------5-5-5-------------------------------|



Introx8
Verse 2x1
Introx8
Chorusx4
Fill 1x7
Verse 3x6
Modified Chorusx8 9play without the tremolo part)
Verse 3x4
Introludex6
Chorusx8 (the first 2x without the fill)
Verse3x1
 
Suggest correction
Give kudos to tab author, rate the tab!
1 2 3 4 5
comments
print report bad tab
guest
You may want to rate the tab now too:
select rating
Wanna post a correction for this tab? Suggest correction