Oops, an error
Loading. Please wait.

Decay Of Granduer Tab

by GWAR
634 views 1 this week
no commentswrite comment
1 2 3 4 5
please rate
add to favorites
launch autoscroll
font size
0
reset
how to read this tab
guitar tuner
Tab Pro tools
  • play this tab
  • loop segment
  • change instrument
  • show fretboard
  • metronome
×
Best way to learn
"Decay Of Granduer"
Autoscroll
slow
fast
+/-
esc
set tempo
stop
Contributor
Difficulty
Tuning
intermediate
D# G# C# F# A# D#
-------------------------------------------------------------------------------
                          Decay Of Granduer - GWAR
-------------------------------------------------------------------------------
Tabbed by: Chris "|SpitFire|" Conner

Tuning: E-Flat

Intro:

eb-----------------------------|
Bb-----------------------------|
Gb-----------------------------|
Db--9---9---7---7--------------|
Ab--7---6---5---4---5-7-7-5-7--|
Eb----0---0---0---0-3-5-5-3-5--|
      .   .   .   .

Verse:

             Repeat twice          Ending A  Ending B
eb--------------------------------|---------|-----------------|
Bb--------------------------------|---------|-----------------|
Gb--------------------------------|---------|-----------------|
Db------5\4-------5\4-7-----5\4---|---5---4-|-5--5--------4---|
Ab----------5-------------------5-|-3---2---|-3--3--------2---|
Eb--0-0-------0-0-------0-0-------|---------|------000000-----|x2
    . .       . .       . .                        ......


             Repeat twice          Ending A  Ending B
eb--------------------------------|---------|-----------------|
Bb--------------------------------|---------|-----------------|
Gb------7\6-------7\6-9-----7\6---|---7---6-|-----------------|
Db----------7-------------------7-|-5---4---|-5--5--------4---|
Ab--------------------------------|---------|-3--3--------2---|
Eb--7-7-------7-7-------7-7-------|---------|------000000-----|x2
    . .       . .       . .                        ......

                                            |-----------------|
                           this is what     |-----------------|
                           Flattus plays    |----------4444---|
                           as Ending B      |-5--5------------|
                                            |------333--------|
                                            |-----------------|

Chorus:

                                                                    Alternation
eb-----------------------------------------------------------------||----------|
Bb-----------------------------------------------------------------||----------|
Gb-----------------------2-----------------------------------------||----------|
Db-5--5-----5--5-4----4----4----5--5--55-5-7-5-4--4-4--7777777777--||----------|
Ab-3--3-----3--3-2--2--------2--3--3--33-3-5-3-2--2-2--5555555555--||---5---4--|
Eb-------00--------------------------------------------------------||-3---2----|
         ..                                            ..........

Bridge:                        ___         ___
           Repeat 4 times      | 1and3     | 2and4
eb-----------------------------|-----------|-----------------|
Bb-----------------------------|-----------|-----------------|
Gb-----------------------------|-----------|-----------------|
Db-----------------------------|-------3---|---2---4-555555--|
Ab-2-2--2-2--2-2--3-3--3-3-3-3-|---5-------|-2---2-----------|
Eb-0-0--0-0--0-0--1-1--1-1-1-1-|-3---3---2-|-----------------|
   . .  . .  . .  . .  . . . .                       ......


Solo:

Guitar 1 plays the bridge WITHOUT palm-muting
Guitar 2 plays this:

eb---------|---------|---------|---------|---------|---------|---------|---------|
Bb-5-5-5-5-|-5-5-5-5-|-5-5-5-5-|-5-5-5-6-|-6-6-6-3-|-3-3-3-3-|-3-3-3-3-|-3-3-3-3-|
Gb---------|---------|---------|---------|---------|---------|---------|---------|
Db---------|---------|---------|---------|---------|---------|---------|---------|
Ab---------|---------|---------|---------|---------|---------|---------|---------|
Eb---------|---------|---------|---------|---------|---------|---------|---------|

eb---------|---------|---------|---------|---------|---------|---------|---6-6-6-|
Bb-5-5-5-5-|-5-5-5-5-|-5-5-5-5-|-5-5-5-6-|-6-6-6-8-|-8-8-8-8-|-8-8-8-8-|-8-------|
Gb---------|---------|---------|---------|---------|---------|---------|---------|
Db---------|---------|---------|---------|---------|---------|---------|---------|
Ab---------|---------|---------|---------|---------|---------|---------|---------|
Eb---------|---------|---------|---------|---------|---------|---------|---------|

eb---------|---------|---------|---------|---------|---------|---------|---------|
Bb-5-5-5-5-|-5-5-5-5-|-5-5-5-5-|-5-5-5-6-|-6-6-6-3-|-3-3-3-3-|-3-3-3-3-|-3-3-3-6-|
Gb---------|---------|---------|---------|---------|---------|---------|---------|
Db---------|---------|---------|---------|---------|---------|---------|---------|
Ab---------|---------|---------|---------|---------|---------|---------|---------|
Eb---------|---------|---------|---------|---------|---------|---------|---------|

eb---------|---------|---------|---------|---------|---------|---------|-12+-----|
Bb-5-5-5-5-|-5-3-3-0-|-0-0-0-0-|-0-0-0---|---------|---------|---------|---------|
Gb---------|---------|---------|-------5-|-5-------|-5--5----|-5--5----|---------|
Db---------|---------|---------|---------|---------|--45-45--|--45-45--|---------|
Ab---------|---------|---------|---------|---------|---------|---------|---------|
Eb---------|---------|---------|---------|---------|---------|---------|---------|


Second Solo:

eb--------------------5-5-5-8-8-8-7-7-7-5-5-5-------------------|
Bb-5-5-5-7-7-7-8-8-8--------------------------8-8-8-7-8-7-5-7-5-|
Gb--------------------------------------------------------------|
Db--------------------------------------------------------------|
Ab--------------------------------------------------------------|
Eb--------------------------------------------------------------|

eb-------------------------------------5-5-5--------------------|
Bb-5-5-5-------8-8-8-5-5-5-------8-8-8-------8-8-8-7-7-7-8-7-5--|
Gb-------8-8-8-------------8-8-8--------------------------------|
Db--------------------------------------------------------------|
Ab--------------------------------------------------------------|
Eb--------------------------------------------------------------|

Ending:
          Repeat twice               Ending A    Ending B
eb---------------------------------|-----------|-----------|
Bb---------------------------------|-----------|-----------|
Gb---------------------------------|-----------|-----------|
Db----9----9----7----7----5----4-4-|-----------|-----------|
Ab--7----6----5----4----3----2-----|-5/7-7--7--|-5/7-7-8-7-|
Eb---------------------------------|-3/5-5--5--|-3/5-5-6-5-|


| /  slide up
| \  slide down
| h  hammer-on
| p  pull-off
| ~  vibrato
| +  harmonic
| x  Mute note
| .  Palm Mute
===============================================================================

comments
We did not receive enough feedback on this tab! Please rate:
print report bad tab
1 2 3 4 5
I want to post or [tab]
guest
You may want to rate the tab now too:
select rating
Please do not post tabs as comments. Select "correction" instead!