Oops, an error
Loading. Please wait.

Dirty Filthy Tab

by GWAR
599 views 3 this week
1 commentread comment
1 2 3 4 5
excellent!
x 1
add to favorites
launch autoscroll
font size
0
reset
how to read this tab
guitar tuner
Tab Pro tools
  • play this tab
  • loop segment
  • change instrument
  • show fretboard
  • metronome
Autoscroll
slow
fast
+/-
esc
set tempo
stop
Contributor
Difficulty
Tuning
intermediate
D# G# C# F# A# D#
Here's most of the great song from RagNaRok.

All strings tuned down one half step.

Intro
|-------------------------------|
|-------------------------------|
|-------------------------------|
|--7/9-9-7/9-9-7/9-9-7/9-9-7-7--|
|--5/7-7-5/7-7-5/7-7-5/7-7-5-5--|
|-------------------------------|
 "I'm tellin' you, you is dirty"

Verse ("Dirty, Filthy")
|------------------------------------------------|
|------------------------------------------------|
|----------------10/9----------------------------|
|--8/9-----------10/9-----------6/7-7/8-6/7-7/8--|
|--6/7------------8/7-----------4/5-5/6-4/5-5/6--|
|------0-0-0-0-0------0-0-0-0-0------------------| x2
PM     . . . . .      . . . . . 

Verse Part 2 ("You're Dirty, Filthy, baby")
|-------------------------------------|
|-------------------------------------|
|------------------------------8-8-8--|
|-----------7-7-7-77-----------8-8-8--|
|--7-7-7-77-5-5-5-55-7-7-7-77--6-6-6--|
|--5-5-5-55----------5-5-5-55---------| x2

Chorus ("Why don't you just admit it")
|-------------------------------------|
|-------------------------------------|
|-------------------------------------|
|-------------------------------------|
|--7-7-7-5---5-5----------------------|
|----------7-----7-5-7-7-5-7-5-3-0-0--| x4

Outro
|---------------------------------------------------------------|
|---------------------------------------------------------------|
|---------------------------------------------------------------|
|---------------------------------------------------------------|
|--7-7-5---5-5---7-7-5---5-5---7-7-5---5-5----------------------|
|--------7-------------7-------------7-----7-5-7-7-5-7-5-3-0-0--|



Song Structure

Intro
Verse x2
Verse Part 2
Verse
Chorus
Verse
Verse Part 2
Verse
Chorus x2 1/2 (Play the riff 10 times)
Outro



Legend 

/     Slide


There you go. I hope it sounds right. I'll work on the random solo interludes 
during the 2nd chorus.

-DH
=======================================================
comments
We did not receive enough feedback on this tab! Please rate:
print report bad tab
1 2 3 4 5
1 comment total.
0 reply
skumdogminion wrote on July 8 2014, 02:33 am

good tab. on the part " why don't you just admit it" , I like to pick single notes. both ways are fun. thanks it answered a couple questions.

I want to post or [tab]
guest
You may want to rate the tab now too:
select rating
Please do not post tabs as comments. Select "correction" instead!