Oops, an error
Loading. Please wait.

El Presidente tab

by GWAR
43 views 21 this week
no commentswrite comment
1 2 3 4 5
3 more votes to show rating
add to favorites
×
Save as Personal and add changes to this tab that will be seen only by you. Learn more ›
×
You can save this tab as Personal to edit and correct it or add notes. All changes will be seen only by you. Learn more »
launch autoscroll
font size
0
reset
how to read this tab
guitar tuner
edit
Autoscroll
slow
fast
+/-
esc
set tempo
stop
About this tab version
Corrected a riff in the verse, then realized I mis-pasted a whole section twice. Was this info helpful? Yes No
[Intro]
eb|----------------------------------------|
Bb|----------------------------------------|
Gb|----------------------------------------|
Db|-----------5---4/5-----5-----5-----4/5--|
Ab|-----------5---4/5-----5-----5-----4/5--|
Eb|--/13\-0-0-3-0-2/3-0-0-3-0-0-3-0-0-2/3--|
PM        . .   .     . .   . .   . .
 
eb|---------------------------------|
Bb|---------------------------------|
Gb|---------------------------------|
Db|------5---4/5-----5----/8-5-4/5--|
Ab|------5---4/5-----5----/8-5-4/5--|
Eb|--0-0-3-0-2/3-0-0-3-0--/6-3-2/3--|
PM   . .   .     . .

eb|-----------------------------------|
Bb|-----------------------------------|
Gb|-----------------------------------|
Db|------5---4/5-----5-----5-----4/5--|
Ab|------5---4/5-----5-----5-----4/5--|
Eb|--0-0-3-0-2/3-0-0-3-0-0-3-0-0-2/3--|
PM   . .   .     . .   . .   . .
 
eb|---------------------------------|
Bb|---------------------------------|
Gb|---------------------------------|
Db|------5---4/5-----5----/8-5-4/5--|
Ab|------5---4/5-----5----/8-5-4/5--|
Eb|--0-0-3-0-2/3-0-0-3-0--/6-3-2/3--|
PM   . .   .     . .

eb|-----------------------------------|
Bb|-----------------------------------|
Gb|-----------------------------------|
Db|------5---4/5-----5-----5-----4/5--|
Ab|------5---4/5-----5-----5-----4/5--|
Eb|--0-0-3-0-2/3-0-0-3-0-0-3-0-0-2/3--|
PM   . .   .     . .   . .   . .
 
eb|---------------------------------|
Bb|---------------------------------|
Gb|---------------------------------|
Db|------5---4/5-----5----/8-5-4/5--|
Ab|------5---4/5-----5----/8-5-4/5--|
Eb|--0-0-3-0-2/3-0-0-3-0--/6-3-2/3--|
PM   . .   .     . .

eb|-----------------------------------|
Bb|-----------------------------------|
Gb|-----------------------------------|
Db|------5---4/5-----5-----5-----4/5--|
Ab|------5---4/5-----5-----5-----4/5--|
Eb|--0-0-3-0-2/3-0-0-3-0-0-3-0-0-2/3--|
PM   . .   .     . .   . .   . .
 
eb|---------------------------------|
Bb|---------------------------------|
Gb|---------------------------------|
Db|------5---4/5-----5----/8-5-4/5--|
Ab|------5---4/5-----5----/8-5-4/5--|
Eb|--0-0-3-0-2/3-0-0-3-0--/6-3-2/3--|
PM   . .   .     . .

[Verse]
eb|-----------------------------------|
Bb|-----------------------------------|
Gb|-----------------------------------|
Db|------5---4/5-----5-----5-----4/5--|
Ab|------5---4/5-----5-----5-----4/5--|
Eb|--0-0-3-0-2/3-0-0-3-0-0-3-0-0-2/3--|
PM   . .   .     . .   . .   . .
 
eb|---------------------------------|
Bb|---------------------------------|
Gb|---------------------------------|
Db|------5---4/5-----5----/8-5-4/5--|
Ab|------5---4/5-----5----/8-5-4/5--|
Eb|--0-0-3-0-2/3-0-0-3-0--/6-3-2/3--|
PM   . .   .     . .

eb|-----------------------------------|
Bb|-----------------------------------|
Gb|-----------------------------------|
Db|------5---4/5-----5-----5-----4/5--|
Ab|------5---4/5-----5-----5-----4/5--|
Eb|--0-0-3-0-2/3-0-0-3-0-0-3-0-0-2/3--|
PM   . .   .     . .   . .   . .
 
eb|---------------------------------|
Bb|---------------------------------|
Gb|---------------------------------|
Db|------5---4/5-----5----/8-5-4/5--|
Ab|------5---4/5-----5----/8-5-4/5--|
Eb|--0-0-3-0-2/3-0-0-3-0--/6-3-2/3--|
PM   . .   .     . .

[Verse Break]
eb|---------------------------------------------|
Bb|---------------------------------------------|
Gb|---------------------------------------------|
Db|--2~~~----8-8-8-2~~~-------------------------|
Ab|--2~~~----8-8-8-2~~~----5-------4---------8--|
Eb|--0~~~----6-6-6-0~~~------4-0-0---3-0-0-6----|
PM                             . .     . .

eb|---------------------------------------------|
Bb|---------------------------------------------|
Gb|---------------------------------------------|
Db|--2~~~----8-8-8-2~~~-------------------------|
Ab|--2~~~----8-8-8-2~~~----5-------4-------3----|
Eb|--0~~~----6-6-6-0~~~------4-0-0---3-0-0---2--|
PM                             . .     . .

eb|------------------------------------------|
Bb|------------------------------------------|
Gb|------------------------------------------|
Db|--2~~~----8--2~~~-------------------------|
Ab|--2~~~----8--2~~~----5-------4---------8--|
Eb|--0~~~----6--0~~~------4-0-0---3-0-0-6----|
PM                          . .     . .

eb|------------------------------------------|
Bb|------------------------------------------|
Gb|------------------------------------------|
Db|--2~~~----8--2~~~-------------------------|
Ab|--2~~~----8--2~~~----5-------4-------3----|
Eb|--0~~~----6--0~~~------4-0-0---3-0-0---2--|
PM                          . .     . .

[Pre-Chorus]
  |Lead
eb|------------------------------------|
Bb|------------------------------------|
Gb|------------------------------------|
Db|--------------------------------8~--|
Ab|--7-6-7-9-10-9-7-6-7-6-7-9-10-9-----|
Eb|------------------------------------|
  |
  |Rhythm
eb|--------------------------|
Bb|--------------------------|
Gb|--------------------------|
Db|--2~~--------------8~~----|
Ab|--2~~--------------8~~----|
Eb|--0~~--------------6~~----|

  |Lead
eb|------------------------------------|
Bb|------------------------------------|
Gb|------------------------------------|
Db|------------------------------9-8~--|
Ab|--7-6-7-9-10-9-7-6-7-6-7-9-10-------|
Eb|------------------------------------|
  |
  |Rhythm
eb|--------------------------|
Bb|--------------------------|
Gb|--------------------------|
Db|--2~~--------------8~~----|
Ab|--2~~--------------8~~----|
Eb|--0~~--------------6~~----|

  |Lead
eb|-----------------------------------------------|
Bb|-----------------------------------------------|
Gb|-----------------------------------------------|
Db|----------------12-11------------------12-11~--|
Ab|--10-9-10-12-13-------13-10-9-10-12-13---------|
Eb|-----------------------------------------------|
  |
  |Rhythm
eb|--------------------------|
Bb|--------------------------|
Gb|-------------------5~~----|
Db|--4~~--------------5~~----|
Ab|--4~~--------------3~~----|
Eb|--2~~---------------------|

  |Lead
eb|---------------------------------------------|
Bb|---------------------------------------------|
Gb|---------------------------------------------|
Db|----------------12-11----10----9----8---7----|
Ab|--10-9-10-12-13-------13----11---10---9---8--|
Eb|---------------------------------------------|
  |
  |Rhythm
eb|------------------------------|
Bb|------------------------------|
Gb|-------------------5~~--4~~---|
Db|--4~~--------------5~~--4~~---|
Ab|--4~~--------------3~~--2~~---|
Eb|--2~~-------------------------|

  |Lead
eb|------------------------------------|
Bb|------------------------------------|
Gb|------------------------------------|
Db|--------------------------------8~--|
Ab|--7-6-7-9-10-9-7-6-7-6-7-9-10-9-----|
Eb|------------------------------------|
  |
  |Rhythm
eb|--------------------------|
Bb|--------------------------|
Gb|--------------------------|
Db|--2~~--------------8~~----|
Ab|--2~~--------------8~~----|
Eb|--0~~--------------6~~----|

  |Lead
eb|------------------------------------|
Bb|------------------------------------|
Gb|------------------------------------|
Db|------------------------------9-8~--|
Ab|--7-6-7-9-10-9-7-6-7-6-7-9-10-------|
Eb|------------------------------------|
  |
  |Rhythm
eb|--------------------------|
Bb|--------------------------|
Gb|--------------------------|
Db|--2~~--------------8~~----|
Ab|--2~~--------------8~~----|
Eb|--0~~--------------6~~----|

  |Lead
eb|-----------------------------------------------|
Bb|-----------------------------------------------|
Gb|-----------------------------------------------|
Db|----------------12-11------------------12-11~--|
Ab|--10-9-10-12-13-------13-10-9-10-12-13---------|
Eb|-----------------------------------------------|
  |
  |Rhythm
eb|--------------------------|
Bb|--------------------------|
Gb|-------------------5~~----|
Db|--4~~--------------5~~----|
Ab|--4~~--------------3~~----|
Eb|--2~~---------------------|

  |Lead
eb|---------------------------------------------|
Bb|---------------------------------------------|
Gb|---------------------------------------------|
Db|----------------12-11----10----9----8---7----|
Ab|--10-9-10-12-13-------13----11---10---9---8--|
Eb|---------------------------------------------|
  |
  |Rhythm
eb|------------------------------|
Bb|------------------------------|
Gb|-------------------5~~--7~~---|
Db|--4~~--------------5~~--7~~---|
Ab|--4~~--------------3~~--5~~---|
Eb|--2~~-------------------------|

[Chorus] 
eb|----------------------------------|
Bb|----------------------------------|
Gb|----------------------------------|
Db|------------2--2------------2--2--|
Ab|------------2--2------------2--2--|
Eb|--0-0-0-0-0-0--0--0-0-0-0-0-0--0--|
PM   . . . . .       . . . . .
  
eb|--------------------------------|
Bb|--------------------------------|
Gb|--------3-3-3-------------4--4--|
Db|--4-4-4-3-3-3-3-3-3-3-3-3-4--4--|
Ab|--4-4-4-1-1-1-3-3-3-3-3-3-2--2--|
Eb|--2-2-2-------1-1-1-1-1-1-------|

eb|--------------------------------------------------|
Bb|--------------------------------------------------|
Gb|--------------------------------------------------|
Db|--------------------------------------------------|
Ab|--------------------------------------------------|
Eb|--0-0-0-0-0-0-0-0--0-0-0--0-0-0-0-0-0-0-0--0-0-0--|
PM   . . . . . . . .  . . .  . . . . . . . .  . . .

eb|--------------------------------|
Bb|--------------------------------|
Gb|--------3-3-3-------------------|
Db|--4-4-4-3-3-3-3-3-3-3-3-3-5--5--|
Ab|--4-4-4-1-1-1-3-3-3-3-3-3-5--5--|
Eb|--2-2-2-------1-1-1-1-1-1-3--3--|

eb|--------------------------------------------------|
Bb|--------------------------------------------------|
Gb|--------------------------------------------------|
Db|--------------------------------------------------|
Ab|--------------------------------------------------|
Eb|--0-0-0-0-0-0-0-0--0-0-0--0-0-0-0-0-0-0-0--0-0-0--|
PM   . . . . . . . .  . . .  . . . . . . . .  . . .

eb|--------------------------------|
Bb|--------------------------------|
Gb|--------3-3-3-------------4--4--|
Db|--4-4-4-3-3-3-3-3-3-3-3-3-4--4--|
Ab|--4-4-4-1-1-1-3-3-3-3-3-3-2--2--|
Eb|--2-2-2-------1-1-1-1-1-1-------|

eb|--------------------------------------------------|
Bb|--------------------------------------------------|
Gb|--------------------------------------------------|
Db|--------------------------------------------------|
Ab|--------------------------------------------------|
Eb|--0-0-0-0-0-0-0-0--0-0-0--0-0-0-0-0-0-0-0--0-0-0--|
PM   . . . . . . . .  . . .  . . . . . . . .  . . .

eb|------------------------------|
Bb|------------------------------|
Gb|--------3-3-3-----------------|
Db|--4-4-4-3-3-3-3-3-3-3-3-3-5---|
Ab|--4-4-4-1-1-1-3-3-3-3-3-3-5---|
Eb|--2-2-2-------1-1-1-1-1-1-3---|

[Verse]
eb|---------------------------------------------|
Bb|---------------------------------------------|
Gb|---------------------------------------------|
Db|--2~~~----8-8-8-2~~~-------------------------|
Ab|--2~~~----8-8-8-2~~~----5-------4---------8--|
Eb|--0~~~----6-6-6-0~~~------4-0-0---3-0-0-6----|
PM                             . .     . .

eb|---------------------------------------------|
Bb|---------------------------------------------|
Gb|---------------------------------------------|
Db|--2~~~----8-8-8-2~~~-------------------------|
Ab|--2~~~----8-8-8-2~~~----5-------4-------3----|
Eb|--0~~~----6-6-6-0~~~------4-0-0---3-0-0---2--|
PM                             . .     . .

eb|------------------------------------------|
Bb|------------------------------------------|
Gb|------------------------------------------|
Db|--2~~~----8--2~~~-------------------------|
Ab|--2~~~----8--2~~~----5-------4---------8--|
Eb|--0~~~----6--0~~~------4-0-0---3-0-0-6----|
PM                          . .     . .

eb|------------------------------------------|
Bb|------------------------------------------|
Gb|------------------------------------------|
Db|--2~~~----8--2~~~-------------------------|
Ab|--2~~~----8--2~~~----5-------4-------3----|
Eb|--0~~~----6--0~~~------4-0-0---3-0-0---2--|
PM                          . .     . .

[Pre-Chorus]
  |Lead
eb|------------------------------------|
Bb|------------------------------------|
Gb|------------------------------------|
Db|--------------------------------8~--|
Ab|--7-6-7-9-10-9-7-6-7-6-7-9-10-9-----|
Eb|------------------------------------|
  |
  |Rhythm
eb|--------------------------|
Bb|--------------------------|
Gb|--------------------------|
Db|--2~~--------------8~~----|
Ab|--2~~--------------8~~----|
Eb|--0~~--------------6~~----|

  |Lead
eb|------------------------------------|
Bb|------------------------------------|
Gb|------------------------------------|
Db|------------------------------9-8~--|
Ab|--7-6-7-9-10-9-7-6-7-6-7-9-10-------|
Eb|------------------------------------|
  |
  |Rhythm
eb|--------------------------|
Bb|--------------------------|
Gb|--------------------------|
Db|--2~~--------------8~~----|
Ab|--2~~--------------8~~----|
Eb|--0~~--------------6~~----|

  |Lead
eb|-----------------------------------------------|
Bb|-----------------------------------------------|
Gb|-----------------------------------------------|
Db|----------------12-11------------------12-11~--|
Ab|--10-9-10-12-13-------13-10-9-10-12-13---------|
Eb|-----------------------------------------------|
  |
  |Rhythm
eb|--------------------------|
Bb|--------------------------|
Gb|-------------------5~~----|
Db|--4~~--------------5~~----|
Ab|--4~~--------------3~~----|
Eb|--2~~---------------------|

  |Lead
eb|---------------------------------------------|
Bb|---------------------------------------------|
Gb|---------------------------------------------|
Db|----------------12-11----10----9----8---7----|
Ab|--10-9-10-12-13-------13----11---10---9---8--|
Eb|---------------------------------------------|
  |
  |Rhythm
eb|------------------------------|
Bb|------------------------------|
Gb|-------------------5~~--4~~---|
Db|--4~~--------------5~~--4~~---|
Ab|--4~~--------------3~~--2~~---|
Eb|--2~~-------------------------|

  |Lead
eb|------------------------------------|
Bb|------------------------------------|
Gb|------------------------------------|
Db|--------------------------------8~--|
Ab|--7-6-7-9-10-9-7-6-7-6-7-9-10-9-----|
Eb|------------------------------------|
  |
  |Rhythm
eb|--------------------------|
Bb|--------------------------|
Gb|--------------------------|
Db|--2~~--------------8~~----|
Ab|--2~~--------------8~~----|
Eb|--0~~--------------6~~----|

  |Lead
eb|------------------------------------|
Bb|------------------------------------|
Gb|------------------------------------|
Db|------------------------------9-8~--|
Ab|--7-6-7-9-10-9-7-6-7-6-7-9-10-------|
Eb|------------------------------------|
  |
  |Rhythm
eb|--------------------------|
Bb|--------------------------|
Gb|--------------------------|
Db|--2~~--------------8~~----|
Ab|--2~~--------------8~~----|
Eb|--0~~--------------6~~----|

  |Lead
eb|-----------------------------------------------|
Bb|-----------------------------------------------|
Gb|-----------------------------------------------|
Db|----------------12-11------------------12-11~--|
Ab|--10-9-10-12-13-------13-10-9-10-12-13---------|
Eb|-----------------------------------------------|
  |
  |Rhythm
eb|--------------------------|
Bb|--------------------------|
Gb|-------------------5~~----|
Db|--4~~--------------5~~----|
Ab|--4~~--------------3~~----|
Eb|--2~~---------------------|

  |Lead
eb|---------------------------------------------|
Bb|---------------------------------------------|
Gb|---------------------------------------------|
Db|----------------12-11----10----9----8---7----|
Ab|--10-9-10-12-13-------13----11---10---9---8--|
Eb|---------------------------------------------|
  |
  |Rhythm
eb|------------------------------|
Bb|------------------------------|
Gb|-------------------5~~--7~~---|
Db|--4~~--------------5~~--7~~---|
Ab|--4~~--------------3~~--5~~---|
Eb|--2~~-------------------------|

[Chorus] 
eb|----------------------------------|
Bb|----------------------------------|
Gb|----------------------------------|
Db|------------2--2------------2--2--|
Ab|------------2--2------------2--2--|
Eb|--0-0-0-0-0-0--0--0-0-0-0-0-0--0--|
PM   . . . . .       . . . . .
  
eb|--------------------------------|
Bb|--------------------------------|
Gb|--------3-3-3-------------4--4--|
Db|--4-4-4-3-3-3-3-3-3-3-3-3-4--4--|
Ab|--4-4-4-1-1-1-3-3-3-3-3-3-2--2--|
Eb|--2-2-2-------1-1-1-1-1-1-------|

eb|--------------------------------------------------|
Bb|--------------------------------------------------|
Gb|--------------------------------------------------|
Db|--------------------------------------------------|
Ab|--------------------------------------------------|
Eb|--0-0-0-0-0-0-0-0--0-0-0--0-0-0-0-0-0-0-0--0-0-0--|
PM   . . . . . . . .  . . .  . . . . . . . .  . . .

eb|--------------------------------|
Bb|--------------------------------|
Gb|--------3-3-3-------------------|
Db|--4-4-4-3-3-3-3-3-3-3-3-3-5--5--|
Ab|--4-4-4-1-1-1-3-3-3-3-3-3-5--5--|
Eb|--2-2-2-------1-1-1-1-1-1-3--3--|

eb|--------------------------------------------------|
Bb|--------------------------------------------------|
Gb|--------------------------------------------------|
Db|--------------------------------------------------|
Ab|--------------------------------------------------|
Eb|--0-0-0-0-0-0-0-0--0-0-0--0-0-0-0-0-0-0-0--0-0-0--|
PM   . . . . . . . .  . . .  . . . . . . . .  . . .

eb|--------------------------------|
Bb|--------------------------------|
Gb|--------3-3-3-------------4--4--|
Db|--4-4-4-3-3-3-3-3-3-3-3-3-4--4--|
Ab|--4-4-4-1-1-1-3-3-3-3-3-3-2--2--|
Eb|--2-2-2-------1-1-1-1-1-1-------|

eb|--------------------------------------------------|
Bb|--------------------------------------------------|
Gb|--------------------------------------------------|
Db|--------------------------------------------------|
Ab|--------------------------------------------------|
Eb|--0-0-0-0-0-0-0-0--0-0-0--0-0-0-0-0-0-0-0--0-0-0--|
PM   . . . . . . . .  . . .  . . . . . . . .  . . .

eb|--------------------------------|
Bb|--------------------------------|
Gb|--------3-3-3-------------------|
Db|--4-4-4-3-3-3-3-3-3-3-3-3-5--5--|
Ab|--4-4-4-1-1-1-3-3-3-3-3-3-5--5--|
Eb|--2-2-2-------1-1-1-1-1-1-3--3--|

[Bass Break]
eb|-----------------------------------------------|
Bb|-----------------------------------------------|
Gb|-----------------------------------------------|
Db|--2-2-2------------2-2-2-2-2---5----/8--5-4/5--|
Ab|--2-2-2------------2-2-2-2-2---5----/8--5-4/5--|
Eb|--0-0-0------------0-0-0-0-0---3-0--/6--3-2/3--|
PM   . . .            . . . . .

[Rhythm Under Solo]
eb|-----------------------------------|
Bb|-----------------------------------|
Gb|-----------------------------------|
Db|------5---4/5-----5-----5-----4/5--|
Ab|------5---4/5-----5-----5-----4/5--|
Eb|--0-0-3-0-2/3-0-0-3-0-0-3-0-0-2/3--|
PM   . .   .     . .   . .   . .
 
eb|---------------------------------|
Bb|---------------------------------|
Gb|---------------------------------|
Db|------5---4/5-----5----/8-5-4/5--|
Ab|------5---4/5-----5----/8-5-4/5--|
Eb|--0-0-3-0-2/3-0-0-3-0--/6-3-2/3--|
PM   . .   .     . .

eb|-----------------------------------|
Bb|-----------------------------------|
Gb|-----------------------------------|
Db|------5---4/5-----5-----5-----4/5--|
Ab|------5---4/5-----5-----5-----4/5--|
Eb|--0-0-3-0-2/3-0-0-3-0-0-3-0-0-2/3--|
PM   . .   .     . .   . .   . .
 
eb|---------------------------------|
Bb|---------------------------------|
Gb|---------------------------------|
Db|------5---4/5-----5----/8-5-4/5--|
Ab|------5---4/5-----5----/8-5-4/5--|
Eb|--0-0-3-0-2/3-0-0-3-0--/6-3-2/3--|
PM   . .   .     . .

eb|-----------------------------------|
Bb|-----------------------------------|
Gb|-----------------------------------|
Db|------5---4/5-----5-----5-----4/5--|
Ab|------5---4/5-----5-----5-----4/5--|
Eb|--0-0-3-0-2/3-0-0-3-0-0-3-0-0-2/3--|
PM   . .   .     . .   . .   . .
 
eb|---------------------------------|
Bb|---------------------------------|
Gb|---------------------------------|
Db|------5---4/5-----5----/8-5-4/5--|
Ab|------5---4/5-----5----/8-5-4/5--|
Eb|--0-0-3-0-2/3-0-0-3-0--/6-3-2/3--|
PM   . .   .     . .

eb|-----------------------------------|
Bb|-----------------------------------|
Gb|-----------------------------------|
Db|------5---4/5-----5-----5-----4/5--|
Ab|------5---4/5-----5-----5-----4/5--|
Eb|--0-0-3-0-2/3-0-0-3-0-0-3-0-0-2/3--|
PM   . .   .     . .   . .   . .
 
eb|---------------------------------|
Bb|---------------------------------|
Gb|---------------------------------|
Db|------5---4/5-----5----/8-5-4/5--|
Ab|------5---4/5-----5----/8-5-4/5--|
Eb|--0-0-3-0-2/3-0-0-3-0--/6-3-2/3--|
PM   . .   .     . .

[Pre-Chorus]
  |Lead
eb|------------------------------------|
Bb|------------------------------------|
Gb|------------------------------------|
Db|--------------------------------8~--|
Ab|--7-6-7-9-10-9-7-6-7-6-7-9-10-9-----|
Eb|------------------------------------|
  |
  |Rhythm
eb|--------------------------|
Bb|--------------------------|
Gb|--------------------------|
Db|--2~~--------------8~~----|
Ab|--2~~--------------8~~----|
Eb|--0~~--------------6~~----|

  |Lead
eb|------------------------------------|
Bb|------------------------------------|
Gb|------------------------------------|
Db|------------------------------9-8~--|
Ab|--7-6-7-9-10-9-7-6-7-6-7-9-10-------|
Eb|------------------------------------|
  |
  |Rhythm
eb|--------------------------|
Bb|--------------------------|
Gb|--------------------------|
Db|--2~~--------------8~~----|
Ab|--2~~--------------8~~----|
Eb|--0~~--------------6~~----|

  |Lead
eb|-----------------------------------------------|
Bb|-----------------------------------------------|
Gb|-----------------------------------------------|
Db|----------------12-11------------------12-11~--|
Ab|--10-9-10-12-13-------13-10-9-10-12-13---------|
Eb|-----------------------------------------------|
  |
  |Rhythm
eb|--------------------------|
Bb|--------------------------|
Gb|-------------------5~~----|
Db|--4~~--------------5~~----|
Ab|--4~~--------------3~~----|
Eb|--2~~---------------------|

  |Lead
eb|---------------------------------------------|
Bb|---------------------------------------------|
Gb|---------------------------------------------|
Db|----------------12-11----10----9----8---7----|
Ab|--10-9-10-12-13-------13----11---10---9---8--|
Eb|---------------------------------------------|
  |
  |Rhythm
eb|------------------------------|
Bb|------------------------------|
Gb|-------------------5~~--4~~---|
Db|--4~~--------------5~~--4~~---|
Ab|--4~~--------------3~~--2~~---|
Eb|--2~~-------------------------|

  |Lead
eb|------------------------------------|
Bb|------------------------------------|
Gb|------------------------------------|
Db|--------------------------------8~--|
Ab|--7-6-7-9-10-9-7-6-7-6-7-9-10-9-----|
Eb|------------------------------------|
  |
  |Rhythm
eb|--------------------------|
Bb|--------------------------|
Gb|--------------------------|
Db|--2~~--------------8~~----|
Ab|--2~~--------------8~~----|
Eb|--0~~--------------6~~----|

  |Lead
eb|------------------------------------|
Bb|------------------------------------|
Gb|------------------------------------|
Db|------------------------------9-8~--|
Ab|--7-6-7-9-10-9-7-6-7-6-7-9-10-------|
Eb|------------------------------------|
  |
  |Rhythm
eb|--------------------------|
Bb|--------------------------|
Gb|--------------------------|
Db|--2~~--------------8~~----|
Ab|--2~~--------------8~~----|
Eb|--0~~--------------6~~----|

  |Lead
eb|-----------------------------------------------|
Bb|-----------------------------------------------|
Gb|-----------------------------------------------|
Db|----------------12-11------------------12-11~--|
Ab|--10-9-10-12-13-------13-10-9-10-12-13---------|
Eb|-----------------------------------------------|
  |
  |Rhythm
eb|--------------------------|
Bb|--------------------------|
Gb|-------------------5~~----|
Db|--4~~--------------5~~----|
Ab|--4~~--------------3~~----|
Eb|--2~~---------------------|

  |Lead
eb|---------------------------------------------|
Bb|---------------------------------------------|
Gb|---------------------------------------------|
Db|----------------12-11----10----9----8---7----|
Ab|--10-9-10-12-13-------13----11---10---9---8--|
Eb|---------------------------------------------|
  |
  |Rhythm
eb|------------------------------|
Bb|------------------------------|
Gb|-------------------5~~--7~~---|
Db|--4~~--------------5~~--7~~---|
Ab|--4~~--------------3~~--5~~---|
Eb|--2~~-------------------------|

[Chorus] 
eb|----------------------------------|
Bb|----------------------------------|
Gb|----------------------------------|
Db|------------2--2------------2--2--|
Ab|------------2--2------------2--2--|
Eb|--0-0-0-0-0-0--0--0-0-0-0-0-0--0--|
PM   . . . . .       . . . . .
  
eb|--------------------------------|
Bb|--------------------------------|
Gb|--------3-3-3-------------4--4--|
Db|--4-4-4-3-3-3-3-3-3-3-3-3-4--4--|
Ab|--4-4-4-1-1-1-3-3-3-3-3-3-2--2--|
Eb|--2-2-2-------1-1-1-1-1-1-------|

eb|--------------------------------------------------|
Bb|--------------------------------------------------|
Gb|--------------------------------------------------|
Db|--------------------------------------------------|
Ab|--------------------------------------------------|
Eb|--0-0-0-0-0-0-0-0--0-0-0--0-0-0-0-0-0-0-0--0-0-0--|
PM   . . . . . . . .  . . .  . . . . . . . .  . . .

eb|--------------------------------|
Bb|--------------------------------|
Gb|--------3-3-3-------------------|
Db|--4-4-4-3-3-3-3-3-3-3-3-3-5--5--|
Ab|--4-4-4-1-1-1-3-3-3-3-3-3-5--5--|
Eb|--2-2-2-------1-1-1-1-1-1-3--3--|

eb|--------------------------------------------------|
Bb|--------------------------------------------------|
Gb|--------------------------------------------------|
Db|--------------------------------------------------|
Ab|--------------------------------------------------|
Eb|--0-0-0-0-0-0-0-0--0-0-0--0-0-0-0-0-0-0-0--0-0-0--|
PM   . . . . . . . .  . . .  . . . . . . . .  . . .

eb|--------------------------------|
Bb|--------------------------------|
Gb|--------3-3-3-------------4--4--|
Db|--4-4-4-3-3-3-3-3-3-3-3-3-4--4--|
Ab|--4-4-4-1-1-1-3-3-3-3-3-3-2--2--|
Eb|--2-2-2-------1-1-1-1-1-1-------|

eb|--------------------------------------------------|
Bb|--------------------------------------------------|
Gb|--------------------------------------------------|
Db|--------------------------------------------------|
Ab|--------------------------------------------------|
Eb|--0-0-0-0-0-0-0-0--0-0-0--0-0-0-0-0-0-0-0--0-0-0--|
PM   . . . . . . . .  . . .  . . . . . . . .  . . .

eb|------------------------------|
Bb|------------------------------|
Gb|--------3-3-3-----------------|
Db|--4-4-4-3-3-3-3-3-3-3-3-3-5---|
Ab|--4-4-4-1-1-1-3-3-3-3-3-3-5---|
Eb|--2-2-2-------1-1-1-1-1-1-3---|


***********************************

| /   Slide-up
| ~   Vibrato
| PM  Palm muting

***********************************

            
            
Suggest correction
Creating personal tab
Creating personal tab
You can edit any tab online and save it as your Personal.

You can edit, replace or remove any tab part or add personal notes – all changes will be seen only by you.

Personal tabs can be accessed anytime from any device, even offline.
Learn more »
Give kudos to tab author, rate the tab!
1 2 3 4 5
comments
print report bad tab
guest
You may want to rate the tab now too:
select rating
Wanna post a correction for this tab? Suggest correction