Oops, an error
Loading. Please wait.

Fishfuck Bass Tab

version 1
version 1

Whole song

by GWAR
1,159 views 1 this week
no commentswrite comment
1 2 3 4 5
please rate
add to favorites
launch autoscroll
font size
0
reset
guitar tuner
Autoscroll
slow
fast
+/-
esc
set tempo
stop
Help us to improve Ultimate-Guitar.com Take our survey!
×
Contributor
Difficulty
novice
Noticed that there was no basstab for this fuckedup song, so i tabbed it myself... enjoy 
/Lilltompa

Riff 1/Intro
Gb:------------------------------|
Db:----------5-5-----------------|
Ab:5-55----------222-2-----------|
Eb:-----3-33---------------------|

Riff 2
Gb:------------------------------|
Db:------------------------------|
Ab:333333332-220-00-333333335~---|
Eb:------------------------------|

Riff 3
Gb:------------------------------|
Db:-------------5----------------|
Ab:55-555-555-53-----------------|
Eb:------------------------------|

Riff 4/Verse
Gb:------------------------------|
Db:------------------------------|
Ab:5-5-5-5-----------------------|
Eb:-------333-555----------------|

Riff 5
Gb:------------------------------|
Db:------------------------------|
Ab:55555555555555555555----------|
Eb:------------------------------|

Riff 6 (A)                            (B)                                (C)
Gb:------------------------------     Gb:------------------------------  Gb:------------------------------|
Db:------------------------------     Db:------------------------------  Db:------------------------------|
Ab:7-77/33333333-7-77/33333333---     Ab:7-77/333333335----------------  Ab:7-77/3333333355555555---------|
Eb:------------------------------     Eb:------------------------------  Eb:------------------------------|

Riff 7
Gb:------------------------------|
Db:--------3---------------------|
Ab:5555-------2------------------|
Eb:----3-------------------------|

Riff 1/Intro x4

Riff 2       x1

Riff 3       x2

Riff 4/Verse x4

Riff 5       x1

Riff 6       x1 (A+B)

Riff 1/Intro x4

Riff 7       x4

Riff 2       x1

Riff 3       x2

Riff 4/Verse x4

Riff 5       x1

Riff 6       x1 (A+C)

Riff 6       x1 (A+B)

That's all, rate nice!
Suggest correction new What's this?
You can suggest a correction to this tab. Community and Mods will review your correction and vote to approve or reject it.
comments
We did not receive enough feedback on this tab! Please rate:
print report bad tab
1 2 3 4 5
guest
You may want to rate the tab now too:
select rating
Please do not post tabs as comments. Select "correction" instead!