Oops, an error
Loading. Please wait.

Fistful Of Teeth Tab

by GWAR
892 views 1 this week
no commentswrite comment
1 2 3 4 5
please rate
add to favorites
launch autoscroll
font size
0
reset
how to read this tab
guitar tuner
Tab Pro tools
  • play this tab
  • loop segment
  • change instrument
  • show fretboard
  • metronome
×
Best way to learn
"Fistful Of Teeth"
Autoscroll
slow
fast
+/-
esc
set tempo
stop
Contributor
Difficulty
Tuning
novice
D# G# C# F# A# D#
-------------------------------------------------------------------------------
               Fistful Of Teeth - GWAR - Album: War Party
-------------------------------------------------------------------------------
Tabbed by: Chris "|SpitFire|" Conner

Tuning: E-Flat


Intro

Guitar 1 and 2:

  Only Lead Guitar plays this -------|
                                     v
e|----------------------------------(0)----------------------------------------------|
B|------------------------------------(2)--------------------------------------------|
G|-2------5-4----3---3-2------5-4----3--(3)2------5-4----3---3-2------5-4----3--x--x-|
D|-2------5-4----3---3-2------5-4----3---3-2------5-4----3---3-2------3-4----3--x--x-|
A|-0------3-2----1---1-0------3-2----1---1-0------3-2----1---1-0------3-2----1--x--x-|
E|-----------------------------------------------------------------------------------|


Verse:

Watch out! This Part i played in 3/4

e|---------------------------------------------------------|
B|---------------------------------------------------------|
G|---------------------------------------------------------|
D|-----------------------------------------------5-4-2-----|
A|-4-2-4-2-4-5-2-4-2-4-2-5-4-2-4-2-4-5-2-4-2-4-2-3-2-0-4-2-|
E|-2-0-2-0-2-3-0-2-0-2-0-3-2-0-2-0-2-3-0-2-0-2-0-------2-0-|

e|---------------------------------------------------------|
B|---------------------------------------------------------|
G|---------------------------------------------------------|
D|-----------------------------------------------5-4-2-----|
A|-4-2-4-2-4-5-2-4-2-4-2-5-4-2-4-2-4-5-2-4-2-4-2-3-2-0-4-2-|
E|-2-0-2-0-2-3-0-2-0-2-0-3-2-0-2-0-2-3-0-2-0-2-0-------2-0-|

   . . . .     . . . . .     . . .     . . . . .       . .

Break:

Guitar 1:

e|----------------------------------6b-----------------------------------6b--|
B|----5--------8--7--------5------8---7-------5-------8--7--------5----8---7-|
G|---------------------------------------------------------------------------|
D|---------------------------------------------------------------------------|
A|---------------------------------------------------------------------------|
E|---------------------------------------------------------------------------|

Guitar 2:

e|---------------------------------------------------------------------------|
B|---------------------------------------------------------------------------|
G|----------------------------------4------------------------------------4---|
D|-2-2-2-------5--4----2-2-2------4-4-5---2-2-2-------5--4----2-2-2----4-4-5-|
A|-2-2-2-------5--4----2-2-2------4-2-5---2-2-2-------5--4----2-2-2----4-2-5-|
E|-0-0-0-------3--2----0-0-0------2---3---0-0-0-------3--2----0-0-0----2---3-|
   . .                 . .                . .                 . .

Interlude:

                                  Play this on second time playing the interlude

e|------------------------------|---------------------------------------------|
B|------------------------------|---------------------------------------------|
G|-5--5-5-5-x-x--7--7-7-7-x-x---|-10-10-9---10-10-9---10-10-9---10-10-9-------|
D|-5--5-5-5-x-x--7--7-7-7-x-x---|-10-10-9---10-10-9---10-10-9---10-10-9-------|
A|-3--3-3-3-x-x--5--5-5-5-x-x---|--8--8-7----8--8-7----8--8-7----8--8-7-------|
E|------------------------------|---------------------------------------------|


Break [Variation]:

Guitar 1:

First play the same as guitar 2, on second time play this

e|----------------------------------6b--|
B|----5--------8--7--------5------8---7-|
G|--------------------------------------|
D|--------------------------------------|
A|--------------------------------------|
E|--------------------------------------|

Guitar 2:

e|-----------------------------------------|
B|-----------------------------------------|
G|--------------7------------------7-------|
D|-2-2-2---5--4-7-5-4--2-2-2---5—4-7---5-4-|
A|-2-2-2---5--4-5-5-4--2-2-2---5-4-5---5-4-|
E|-0-0-0---3--2---3-2--0-0-0---3-2-----3-2-|x2
   . .                 . .


Bridge:

Actually the bass plays this part, but u can play it as well

e|-----------------------------------|
B|-----------------------------------|
G|-----------------------------------|
D|-----------------------------------|
A|-0---0---0---------3---2-----1---1-|
E|-----------0-0---------------------|x4

On fourth time, the actual Guitars set in:

Guitar 1:

e|-20------------------------------------------------------------------------|
B|---------------------------------------------------------------------------|
G|---------------------------------------------------------------------------|
D|-Palm-Muted Slide down picking as fast as you can--------------------------|
A|---------------------------------------------------------------------------|
E|---------------------------------------------------------------------------|

Guitar 2:

e|-----------------------------------------|
B|-----------------------------------------|
G|-----------------------------------------|
D|-2-2-2-2-2---------5-5-4-4-4-3-3-3-3-5-3-|
A|-0-0-0-0-0-2-2-2-2-3-3-2-2-2-1-1-1-1-3-1-|
E|-----------0-0-0-0-----------------------|
   . . . . . . . . . . . . . . . . . .

Guitar 1:

e|-12--15--12--15------12------10~~--------0-3-2-5-3-5-0-2-3-----12----15-15-15-15~|
B|---------------------------------------------------------------------------------|
G|---------------------------------------------------------------------------------|
D|---------------------------------------------------------------------------------|
A|---------------------------------------------------------------------------------|
E|---------------------------------------------------------------------------------|

Guitar 2:

e|---------------------------------------------------------------------------------|
B|---------------------------------------------------------------------------------|
G|-2---2---2---------5---4-----4-5-7---5-4-2---2---2---------5---4-----3-3-3-3-5-3-|
D|-2---2---2-2-2-----5---4-----4-5-7---5-4-2---2---2-2-2-----5---4-----3-3-3-3-5-3-|
A|-0---0---0-2-2-----3---2-----2-3-5---3-2-0---0---0-2-2-----3---2-----1-1-1-1-3-1-|
E|-----------0-0-------------------------------------0-0---------------------------|x2



e|---------------------------------------------------------------------------|
B|---------------------------------------------------------------------------|
G|-10--10-10-10-x-x--12--12-12-12-x-x--9--9-9-9-x-x--10--10-10-10-9-7--------|
D|-10--10-10-10-x-x--12--12-12-12-x-x--9--9-9-9-x-x--10--10-10-10-9-7--------|
A|--8---8--8--8------10--10-10-10-x-x--7--7-7-7-x-x---8---8--8--8-7-5--------|
E|---------------------------------------------------------------------------|

e|------------------------------|
B|------------------------------|
G|-5--5-5-5-x-x--7--7-7-7-x-x---|
D|-5--5-5-5-x-x--7--7-7-7-x-x---|
A|-3--3-3-3-x-x--5--5-5-5-x-x---|
E|------------------------------|

Intro
Verse
Break
Verse
Interlude
Break [Variation]
Interlude
Bridge
Break [Variation]x2
Verse


| /  slide up
| \  slide down
| h  hammer-on
| p  pull-off
| b  bend
| ~  Vibrato
| +  harmonic
| x  Mute note
===============================================================================
comments
We did not receive enough feedback on this tab! Please rate:
print report bad tab
1 2 3 4 5
I want to post or [tab]
guest
You may want to rate the tab now too:
select rating
Please do not post tabs as comments. Select "correction" instead!