Oops, an error
Loading. Please wait.

Hate Love Songs Bass Tab

version 1
version 1

Whole song

Interactive

by GWAR
1,086 views 1 this week
no commentswrite comment
1 2 3 4 5
excellent!
x 1
add to favorites
launch autoscroll
font size
0
reset
guitar tuner
Tab Pro tools
  • play this tab
  • loop segment
  • change instrument
  • show fretboard
  • metronome
Autoscroll
slow
fast
+/-
esc
set tempo
stop
Contributor
----------------------------------------------------------------------------
			  Hate Love Songs - Gwar
----------------------------------------------------------------------------

Part 1:
  G|-----------------------|
  D|-----------------------| 3x
  A|-----5-4-------4-------|
  E|-2-2-----5-4-5---5-4-5-|

Part 2:
  G|----------|
  D|----------| 1x
  A|-----5-4~-|
  E|-2-2------|

Part 3:
  G|----------------------------|
  D|----------------------------| 1x
  A|----4~-2~-1~-2-1-2-1-2-1----|
  E|-2~----------------------2~-|

Rest during pick slides

Part 4:
  G|------------------------------------------|
  D|------------------------------------------|
  A|---------------------4-4-4-4-4-4-4-4-4-4--|
  E|-2-2-2-2-2-2-2-2-2-2----------------------|

    ---------------------------------------------|
    ---------------------------------------------| 2x
    -2-2-2-2-2-1-1-1-1-1-1--22--111-222--11--2-1-|
    ---------------------------------------------|

Part 1- 3x
Part 2- 1x
Part 4- 2x


Part 5:
  G|------------------------------------------|
  D|------------------------------------------|
  A|---------------------4-4-4-4-4-4-4-4-4-4--|
  E|-2-2-2-2-2-2-2-2-2-2----------------------|

    ---------------------------------------------|
    ---------------------------------------------| 1x
    -2-2-2-2-2-1-1-1-1-1-1--22--111-222--11--2-4-|
    ---------------------------------------------|

Part 6:
  G|---------------------------------------------|
  D|---------------------------------------------|
  A|-6-6-6-6-6-4-4-4-4-4-4-7-7-7-7-7-------------|
  E|---------------------------------7-7-7-7-7-7-|

    ---------------------------------------------|
    ---------------------------------------------| 2x
    -6-6-6-6-6-4-4-4-4-4-4-----------------------|
    -----------------------7-7-7-7-7-7-7-7-7-7-7-|

Play E|7777777777| until just guitar

Part 7:
  G|--------------------------|
  D|--------------------------|
  A|----6-4--4-2--1-2-1-2-1-2-|
  E|-2------------------------|

Part 4- 1x
Part 5- 1x
Part 6- 2x
  E|7777777777|
Part 1- 3x
Part 2- 1x
comments
We did not receive enough feedback on this tab! Please rate:
print report bad tab
1 2 3 4 5
I want to post or [tab]
guest
You may want to rate the tab now too:
select rating
Please do not post tabs as comments. Select "correction" instead!