Oops, an error
Loading. Please wait.

Have You Seen Me Bass Tab

by GWAR
1,547 views 1 this week
no commentswrite comment
1 2 3 4 5
x 3
add to favorites
launch autoscroll
font size
0
reset
guitar tuner
Autoscroll
slow
fast
+/-
esc
set tempo
stop
Help us to improve Ultimate-Guitar.com Take our survey!
×
Author
Intro/Verse
G:--------------------------------------------|
D:--------------------------------------------|
A:-0------0-2-3-2-0--------3-2-0-2------------|
E:--2-0-2------------2-0-2--------------------|

Chorus
G:-------------------------------------------------------|
D:-------------------------------------------------------|
A:-0-2-3~----0-2-3~--2----0-2-3-2~---0-2-3-2~-0~---0-3-4~|
E:-------------------------------------------------------|

Intro/Verse
Chrous

Bridge
G:-------------------------------------------------|
D:-------------------------------------------------|
A:-2--1--2--1--2--1--2--1--------------------------|
E:-------------------------1--0--1--0--4--3--5--4--|

G:-------------------------------------------------|
D:-------------------------------------------------|
A:-2--1--2--1--2--1--2--1--------------------------|
E:-------------------------4--3--1--2--1--0--1--0--|

G:-------------------------------------------------|
D:-------------------------------------------------|
A:-2--1--2--1--2--1--2--1--------------------------|
E:-------------------------1--0--1--0--4--3--5--4--|

G:-------------------------------------------------|
D:-------------------------------------------------|
A:-2--1--2--1--2--1--2--1--------------------------|
E:-------------------------4--3--1--2--1--0--1--0--|

"Its Just A Dead Child.." (Couldnt get the fills)
G:------------------------------------------------------|
D:------------------------------------------------------|
A:------------------------------------------------------|
E:-4-4-4-4-4-3~-4-4-4-4-4-7~-4-4-4-4-4-3~-4-4-4-4-4-7~--|

G:--------------------------|
D:--------------------------|
A:-3-4--3-4--3-4------------|
E:---------------7-6-5-4----|

Chorus Variation

Then...
G:-------------------|
D:-------------------|
A:-3-0--6-6-5-3-5-3--|
E:-------------------|


G:-----------------|
D:-----------------|
A:-0-2-3~----------|
E:-----------------|
Suggest correction
Give kudos to tab author, rate the tab!
1 2 3 4 5
comments
print report bad tab
guest
You may want to rate the tab now too:
select rating
Wanna post a correction for this tab? Suggest correction