Oops, an error
Loading. Please wait.

Have You Seen Me Tab

version 2
version 2

Whole song

by GWAR
789 views 1 this week
no commentswrite comment
1 2 3 4 5
please rate
add to favorites
launch autoscroll
font size
0
reset
how to read this tab
guitar tuner
Tab Pro tools
  • play this tab
  • loop segment
  • change instrument
  • show fretboard
  • metronome
Autoscroll
slow
fast
+/-
esc
set tempo
stop
Contributor
Difficulty
Tuning
novice
D# G# C# F# A# D#
The legendary child-raping, necrophiliac song from
"America Must Be Destroyed".

All strings tuned half-step down.


INTRO
(I can't figure out the album version, but here's a way they do it live)
|---------------------------|      |------------------------------|
|--11-------11-11-11h13p11--|      |--11-------14-14-14-11h13p11--|
|-----12--------------------|      |-----12-----------------------|
|---------------------------|      |------------------------------|
|---------------------------|      |------------------------------|
|---------------------------|  x3  |------------------------------|


VERSE
(Once again, live versions)
|------------------------------|
|--11-------14-14-14-11h13p11--|
|-----12-----------------------|
|------------------------------|
|------------------------------|
|------------------------------|


HAVE YOU SEEN ME?
|Lead
|--------------|
|--11-13-14~~--|
|--------------|
|--------------|
|--------------|
|--------------|
|
|Rhythm
|-----------|
|-----------|
|--3---6~~--|
|--3-5-6~~--|
|--1-5-4~~--|
|----3------|


CHORUS
|------------------------|
|------------------------|
|--3---6~~--5------------|
|--3-5-6~~--5------------|
|--1-5-4~~--3---(Slide)--|
|----3-------------------|

|----------------------------------------|
|----------------------------------------|
|--3---6-5---3---6-5---3~~---3-----6~~~--|
|--3-5-6-5---3-5-6-5---3~~---3-5---6~~~--|
|--1-5-4-3---1-5-4-3---1~~---1-5---4~~~--|
|----3---------3---------------3-0-------|
PM                               .


Repeat VERSE
       CHORUS


INTERLUDE
|------------------------------------|
|------------------------------------|
|--5-4-5-4-5-4-5-4-------------------|
|--5-4-5-4-5-4-5-4--4-3-4-3-7-6-4-6--|
|--3-2-3-2-3-2-3-2--4-3-4-3-7-6-4-6--|
|-------------------2-1-2-1-5-4-2-4--|

|------------------------------------|
|------------------------------------|
|--5-4-5-4-5-4-5-4-------------------|
|--5-4-5-4-5-4-5-4--7-6-3-7-6-3-7-6--|
|--3-2-3-2-3-2-3-2--7-6-3-7-6-3-7-6--|
|-------------------5-4-1-5-4-1-5-4--| x2


DEAD CHILD
|-------------------------------------|
|-------------------------------------|
|-------------------------------------|
|--7-7-7-7-7-7-6~~--7-7-7-7-7-7-10~~--|
|--7-7-7-7-7-7-6~~--7-7-7-7-7-7-10~~--|
|--5-5-5-5-5-5-4~~--5-5-5-5-5-5--8~~--| x4
PM   . . . . .        . . . . .


YOUR MOM
|--------------------------------------------------|
|--------------------------------------------------|
|--14-14-14-14-14-14-13~~--14-14-14-14-14-14-17~~--|
|---x--x--x--x--x--x--x~~---x--x--x--x--x--x--x~~--|
|--12-12-12-12-12-12-11~~--12-12-12-12-12-12-15~~--|
|--------------------------------------------------| x2

Repeat INTERLUDE
       DEAD CHILD
       YOUR MOM


BREAKDOWN
|---------------------------------------------------|
|----------------------------------------------(*)--|
|----7---7---7-----------------7---7---7-------(*)--|
|----7---7---7-----------------7---7---7-------(*)--|
|----5---5---5-----------------5---5---5------------|
|--0---0---0---0-5-7-8-7-5-0-0---0---0---0-5-0------| x2
PM .   .   .   . . . . . . . .   .   .   . . . 
                                                ^
                                  Play a harmonic on any fret
                                  between the 7th and 10th 
                                  on only one of the strings.


FINAL CHORUS
|-----------------------------------------------------------------------|
|-----------------------------------------------------------------------|
|--3---6~~--5---3---6-5---3---6-5-3---6~~--5---3---6-5---3---6-5---3~~--|
|--3-5-6~~--5---3-5-6-5---3-5-6-5-3-5-6~~--5---3-5-6-5---3-5-6-5---3~~--|
|--1-5-4~~--3---1-5-4-3---1-5-4-3-1-5-4~~--3---1-5-4-3---1-5-4-3---1~~--|
|----3------------3---------3-------3------------3---------3------------|

|-------------------------------------------------------------|
|-------------------------------------------------------------|
|--3---6~~--5---3---6-5---3---6-5-3---6~~--5---3---6-5---3~~--|
|--3-5-6~~--5---3-5-6-5---3-5-6-5-3-5-6~~--5---3-5-6-5---3~~--|
|--1-5-4~~--3---1-5-4-3---1-5-4-3-1-5-4~~--3---1-5-4-3---1~~--|
|----3------------3---------3-------3------------3------------|

|-------------|
|-------------|
|--3-----6~~--|
|--3-5---6~~--|
|--1-5---4~~--|
|----3-0------|
PM     .


FINAL VERSE
|--------------------------|
|--------------------------|
|--3---------6-6--6-----5--|
|--3-----5---6-6--6-----5--|
|--1-----5---4-4--4-----3--|
|----0-0-3-0--------0-0----| x12
PM   . .   .        . .


ENDING
|Lead
|--------------------------|
|--11--13--14~~~~----------|
|-----------------------5--|
|-----------------------5--|
|-----------------------3--|
|--------------------------|
|
|Rhythm
|---------------------|
|---------------------|
|--3---6~~~~-------5--|
|--3-5-6~~~~-------5--|
|--1-5-4~~~~-------3--|
|----3----------------|


Legend
========
h    | Hammer-On
p    | Pull-Off
PM   | Palm Muting
~    | Hold Note
x    | Mute Note

Mkay...that's it. I'm not sure about some things, but it's close enough.
Feedback is welcomed.

-DH
========================================
comments
We did not receive enough feedback on this tab! Please rate:
print report bad tab
1 2 3 4 5
I want to post or [tab]
guest
You may want to rate the tab now too:
select rating
Please do not post tabs as comments. Select "correction" instead!