Oops, an error
Loading. Please wait.

Horror Of Yig Tab

version 1
version 1

Whole song

by GWAR
1,174 views 1 this week
1 commentread comment
1 2 3 4 5
please rate
add to favorites
launch autoscroll
font size
0
reset
how to read this tab
guitar tuner
Autoscroll
slow
fast
+/-
esc
set tempo
stop
Help us to improve Ultimate-Guitar.com Take our survey!
×
Author
Difficulty
Tuning
intermediate
D# G# C# F# A# D#
-------------------------------------------------------------------------------
                          Horror Of Yig - GWAR
-------------------------------------------------------------------------------
Tabbed by: Chris "|SpitFire|" Conner

Tuning: E-Flat

NOTICE! I used the "Live From Mt. Fuji" Version to tab the song, so there
might be some differences.

In the Intro of the LFMF Version, Flattus does some Pickscrapes with wah-effect.
BalSac plays Natural Harmonics on the 7th fret of the Ab and Db String. Then,
the actual song starts:

|Flattus
|eb-----------------------------------------------------------------------|
|Bb---10----------9-------------------------------------------------------|
|Gb--9---9-8~---8---8-7~---8787~-8787~-8p7h8p7h8p7h8p7h8p7----------------|
|Db---------------------------------------------------------[Pickscrape]--|
|Ab-----------------------------------------------------------------------|
|Eb-----------------------------------------------------------------------|
|
|BalSac
|eb----8----------7-------------------------------------------------------|
|Bb--8---8-7~---7---7-6~---7676~-7676~-7p6h7p6h7p6h7p6h7p6----------------|
|Gb-----------------------------------------------------------------------|
|Db---------------------------------------------------------[Pickscrape]--|
|Ab-----------------------------------------------------------------------|
|Eb-----------------------------------------------------------------------|

eb-------------------------------------------------------------------------|
Bb-------------------------------------------------------------------------|
Gb--9----9----------9----9----------9----9----------9----9-----------------|
Db--9----9----------9----9----------9----9----------9----9-----------------|
Ab--7----7----------7----7----------7----7----------7----7-----------------|
Eb-----0-----000000----0-----000000----0-----000000----0-----000000--------|


Verse:

eb---------------------------------------------------------------------------|
Bb---------------------------------------------------------------------------|
Gb---------------------------------------------------------------------------|
Db---------------------------------------------------------------------------|
Ab-------11--10h11p10------11--10h11----------11--10h11p10------11--10h11----|
Eb--0-00--------------0-00-----------12--0-00--------------0-00-----------12-|

eb---------------------------------------------------------------------------|
Bb---------------------------------------------------------------------------|
Gb---------------------------------------------------------------------------|
Db-------------------------------------9--12/21\------9--12/21\--------------|
Ab-------7--10/19\------7--10/19\--------------------------------------------|
Eb--0--0-----------0--0-----------0--0-----------0--0------------------------|


Small Solo:
           I am not really sure about this[                 ] part
eb--12-15t------13-15t--13-15t--18\9--7-9--13p9h13p9h13p9h13... -12--12-12---|
Bb---------------------------------------------------------------12--12-12---|
Gb----------------------------------------------------------------9---9--9---|
Db---------------------------------------------------------------------------|
Ab---------------------------------------------------------------------------|
Eb---------------------------------------------------------------------------|


Fill-In:

eb----------------|
Bb----------------|
Gb--12--11--7--9--|
Db--12--11--7--9--|
Ab--10---9--5--7--|
Eb----------------|


Chorus:

Repeat twice
eb---------------------------------------------------------------------------|
Bb---------------------------------------------------------------------------|
Gb--7-9--9-7-9--9-7-9--9----------7-9--9-7-9--9-7-9--9-----------------------|
Db--7-9--9-7-9--9-7-9--9-88888888-7-9--9-7-9--9-7-9--9-88888888--------------|
Ab--5-7--7-5-7--7-5-7--7-88888888-5-7--7-5-7--7-5-7--7-88888888--------------|
Eb-----------------------66666666----------------------66666666--------------|

Repeat twice
eb------------------------------------------------------------------|
Bb------------------------------------------------------------------|
Gb-10-10----10-10----10-10----10-10-----9-----------9-----------9---|
Db-10-10----10-10----10-10----10-10-----9-----------9-----------9---|
Ab--8--8-----8--8-----8--8-----8--8-----7-----------7-----------7---|
Eb-------000------000------000------0-0---0-0-0-0-0-0-0-0-0-0-0-0---|
                                          . . . . .   . . . . . 

Solo Rythm:

Repeat three times
eb-----------|---------|---------|---------|---------|---------|---------|---------|
Bb-----------|---------|---------|---------|---------|---------|---------|---------|
Gb--9--9--9--|9--9--9--|9--9--9--|9--9--9--|---------|---------|---------|---------|
Db--9--9--9--|9--9--9--|9--9--9--|9--9--9--|8--8--7--|8--8--7--|8--8--7--|9--8--5--|
Ab--7--7--7--|7--7--7--|7--7--7--|7--7--7--|8--8--7--|8--8--7--|8--8--7--|9--8--5--|
Eb-----------|---------|---------|---------|6--6--5--|6--6--5--|6--6--5--|7--6--3--|

eb-----------|---------|---------|---------|---------|---------|---------|---------|
Bb-----------|---------|---------|---------|---------|---------|---------|---------|
Gb--9--9--9--|9--9--9--|9--9--9--|9--9--9--|---------|---------|---------|---------|
Db--9--9--9--|9--9--9--|9--9--9--|9--9--9--|8--8--7--|8--8--7--|8--8--7--|9--8--3--|
Ab--7--7--7--|7--7--7--|7--7--7--|7--7--7--|8--8--7--|8--8--7--|8--8--7--|9--8--3--|
Eb-----------|---------|---------|---------|6--6--5--|6--6--5--|6--6--5--|7--6--1--|

eb-----------------|
Bb-----------------|
Gb-----------------|
Db--5----4----2----|
Ab--5----4----2----|
Eb--3----2----0----|


Bridge:

|Flattus [Flanger and Wah]
|eb------ ...4h5p4h5-------------------------------------------------------------|
|Bb--------------------10-----9-----8-----7-----6-----5-----4-----3--------------|
|Gb-------------------9---9-8---8-7---7-6---6-5---5-4---4-3---3-2---2------------|
|Db------------------------------------------------------------------------------|
|Ab------------------------------------------------------------------------------|
|Eb-------------------------------------------------------------------0~---------|
|
|BalSac
|eb-----8---------------8-----7-----6-----5-----4-----3-----2-----1--------------|
|Bb---8---8~----------8---8-7---7-6---6-5---5-4---4-3---3-2---2-1---1-----3-3h5--|
|Gb------------------------------------------------------------------------------|
|Db------------------------------------------------------------------------------|
|Ab------------------------------------------------------------------------------|
|Eb-------------0~----------------------------------------------------0~---------|

[Pickscrape]

                   
| /  slide up
| \  slide down
| h  hammer-on
| p  pull-off
| ~  vibrato
| +  harmonic
| x  Mute note
===============================================================================

Suggest correction
Give kudos to tab author, rate the tab!
1 2 3 4 5
comments
print report bad tab
1 comment total.
0 reply
BrandtCooley 31 wrote on February 24 2009, 03:16 am

Plenty of wrongness, only think you have right are the power chords, mostly.

guest
You may want to rate the tab now too:
select rating
Wanna post a correction for this tab? Suggest correction