Oops, an error
Loading. Please wait.

I Hate Love Songs Bass Tab

version 2
version 2

Whole song

by GWAR
806 views 1 this week
no commentswrite comment
1 2 3 4 5
1 last vote to show rating
add to favorites
launch autoscroll
font size
0
reset
guitar tuner
Autoscroll
slow
fast
+/-
esc
set tempo
stop
Help us to improve Ultimate-Guitar.com Take our survey!
×
Author
Difficulty
novice
Intro                      x3
|---------------------------|-----------------|
|.-------------------------.|-----------------|
|.-------5-4--4------------.|--------5-4~---4-|
|-2-2--2--------5-5-5-4-4-4-|-2-2--2----------|

Pre-Verse
|--------------------------------|------------|
|--------------------------------|------------|
|-------4----2--1--2-1-2-1-2-----|------------|
|-2--------------------------4-2-|-(2)--------|

Verse
|------------------------------|------------------------------|
|.-----------------------------|------------------------------|
|.-----------------------------|-4--4--4-4-4-4--4-4-4-4-4-4-4-|
|-2--2--2-2-2-2--2-2-2-2-2-2-2-|------------------------------|
                                                x2
|------------------------------|-----------------|
|------------------------------|----------------.|
|-2--2--2-2-2-1--1—1-1-1-1-1-1-|-2--1--2--1--2--.|
|------------------------------|---------------4-|

Intro
Verse

Chorus
|---------------------------------|---------------------------------|
|.--------------------------------|-2-2-2-2-2-2-2-2-----------------|
|.6-6-6-6-6-6-6-6-4-4-4-4-4-4-4-4-|-----------------2-2-2-2-2-2-2-2-|
|---------------------------------|---------------------------------|
                                                                   x2
|---------------------------------|---------------------------------|
|---------------------------------|--------------------------------.|
|-6-6-6-6-6-6-6-6-4-4-4-4-4-4-4-4-|-2-2-2-2-2-2-2-2-2-2-2-2-2-2-2-2.|
|---------------------------------|---------------------------------|

Bridge
|------------------------|----------------------------------------|
|------------------------|----------------------------------------|
|------------------------|----------5-4-----3-2---1---2-1-2-1-2---|
|-2----------------------|-2--------------------------------------|

Guitar Solo
Verse Riff

Chorus
The last bar the second time around is changed to
|-------------|
|-------------|
|-2-1-2-1-2---|
|-----------4-|

Intro

Outro
|---------------|---------------|---------------------------------|
|---------------|---------------|---------------------------------|
|---------------|---------------|---------------------------------|
|-2-------------|-2-------------|-2-2-2-2-2-2-2-2-2-2-2-2-2-2-2-2-|

|--------------------|
|--------------------|
|-2-1-2-1-2----------|
|-----------4-2------|
Suggest correction
Give kudos to tab author, rate the tab!
1 2 3 4 5
comments
print report bad tab
guest
You may want to rate the tab now too:
select rating
Wanna post a correction for this tab? Suggest correction