Oops, an error
Loading. Please wait.

Immortal Corruptor Bass Tab

by GWAR
3,244 views 6 this week
3 commentsread comments
1 2 3 4 5
worth learning
x 3
add to favorites
launch autoscroll
font size
0
reset
guitar tuner
Autoscroll
slow
fast
+/-
esc
set tempo
stop
Help us to improve Ultimate-Guitar.com Take our survey!
×
Author
Difficulty
intermediate
This is really cool song...and i haven't seen it tabbed yet...so I thought i'm gonna tab 
yeah hope you guys (and gals) enjoy...

~ Let ring
/ Slide up from Particular note
\ Slide down from particular note
H Hammer on
P Pull Off
Intro is guitar... although you can play this if you want:

Gb:--------------------------|
Db:--------------------------|
Ab:--2~--3-2~-3--2~--2-3-5---|
Eb:------------------------3-|

Bass comes in...then the spanish guitar cuts in after you play this once:

Gb:----------------------------------------------------------|
Db:----------------------------------------------------------|
Ab:-77-5-3-55-2-5-77-5-3/1010-9-5-77-5-3-55-2-5-77-2-3-2-5---|
Eb:--------------------------------------------------------3-|

verse: all Of the riffs are played in order...and all the zeros in here are the right 
that are in the song...

Riff One
Gb:-------------------------------------|
Db:-------------------------------------|
Ab:------------1---------------------1--|
Eb:00000--0--00--0000----00000--0--00---|

Riff Two
Gb:----------------------------------------------------------|
Db:----------------------------------------------3p2-5h7-0h2-|
Ab:------------1--------------------------1------------------|
Eb:00000--0--00--0000---15\---00000--0--00--0000-------------|

Riff Three
Gb:-----------------------------------------------------------------|
Db:-----------------------------------------------------------------|
Ab:-------------1------3p2--------------------------1----3-2--------|
Eb:-00000--0--00--0000-----0000--2h3----00000--0--00---0-----0--2h3-|

Riff Four

Gb:-----------------------------------------------------------|
Db:-----------------------------------------------3p2-5h7-0h2-|
Ab:--------------1--------------------------1-----------------|
Eb:-00000--0--00---0000-0000---00000--0--00---0000------------|

Pre Chours:(Play twice)...this is kind of Tricket Alot of Finger Momvemnet is 
have some strong fingers for this one haha

Rif One
Gb:--------------------------------------|
Db:--------------------------------------|
Ab:----------------------------------5h7-|
Eb:-0000-5p3--0000--5p4p3p2--0000-3h5----|

Riff Two
Gb:---------------------------------------|
Db:---------------------------------------|
Ab:----------------------------5--7--5--7-|
Eb:-0000-5p3--0000-5p4p3p2--0---0--0--0---|

Chours: Same goes for this one as the last one... strong fingers needed lol..only this 
he's using triplets..

Riff One
Gb:------------------------------------------|
Db:------------------------------------------|
Ab:--------------------------------------5h7-|
Eb:-00-00-00-00--6p5p4p3--00-00-00-00-3h5----|

Riff Two
Gb:-------------------------------------------|
Db:-------------------------------------------|
Ab:-------------------------------5--7--5--7--|
Eb:-00-00-00-00--6p5p4p3--00-00-0--0--0--0----|

Verse:

Riff One
Gb:-------------------------------------|
Db:-------------------------------------|
Ab:------------1---------------------1--|
Eb:00000--0--00--0000----00000--0--00---|

Riff Two
Gb:----------------------------------------------------------|
Db:----------------------------------------------3p2-5h7-0h2-|
Ab:------------1--------------------------1------------------|
Eb:00000--0--00--0000---15\---00000--0--00--0000-------------|

Riff Three
Gb:-----------------------------------------------------------------|
Db:-----------------------------------------------------------------|
Ab:-------------1------3p2--------------------------1----3-2--------|
Eb:-00000--0--00--0000-----0000--2h3----00000--0--00---0-----0--2h3-|

Riff Four

Gb:-----------------------------------------------------------|
Db:-----------------------------------------------3p2-5h7-0h2-|
Ab:--------------1--------------------------1-----------------|
Eb:-00000--0--00---0000-0000---00000--0--00---0000------------|

Pre Chours: Play twice

RiffOne
Gb:--------------------------------------|
Db:--------------------------------------|
Ab:----------------------------------5h7-|
Eb:-0000-5p3--0000--5p4p3p2--0000-3h5----|

Riff Two
Gb:---------------------------------------|
Db:---------------------------------------|
Ab:----------------------------5--7--5--7-|
Eb:-0000-5p3--0000-5p4p3p2--0---0--0--0---|

Chours:

Riff One
Gb:------------------------------------------|
Db:------------------------------------------|
Ab:--------------------------------------5h7-|
Eb:-00-00-00-00--6p5p4p3--00-00-00-00-3h5----|

Riff Two
Gb:-------------------------------------------|
Db:-------------------------------------------|
Ab:-------------------------------5--7--5--7--|
Eb:-00-00-00-00--6p5p4p3--00-00-0--0--0--0----|

Prelude: Play Four Times

Gb:------------------------------------------------------------------------|
Db:------3p2-----5h7------3p2-----0h2------3p2------5h7------3p2--5h7--0h2-|
Ab:------------------------------------------------------------------------|
Eb:-0000-----0000----0000-----0000----0000-----0000-----0000---------------|

Intro Again:
Gb:----------------------------------------------------------|
Db:----------------------------------------------------------|
Ab:-77-5-3-55-2-5-77-5-3/1010-9-5-77-5-3-55-2-5-77-2-3-2-5---|
Eb:--------------------------------------------------------3-|

Finale:(I guess is what You would call it lol)

Gb:-----------------------------------------------------------------------|
Db:----------------------------------------------------/555---------------|
Ab:----------------------------------------------/777--------/777---------|
Eb:0-0-0-0-0-0-0-0-0-0-0-0-0-0-0-0-0-0-33-22-000----000---000-----33-22-0-|

Gb:-----------|
Db:-0h2-4h5-0-|
Ab:-----------|
Eb:-----------|

Gb:-------------------------------------------------------------|
Db:-----------------0h2------------------------------0h2-4h5-0--|
Ab:------------------------2h3----------------2h3---------------|
Eb:-3333-2222--0000----0000----0000--2h3--0000---0000-----------|

Gb:-------------------------------------------------|
Db:------0h2-----------4h5-----0h2------------------|
Ab:------------2h3----------------------------------|
Eb:-0000--0000-----0000----0000----0000--3333--2222-|

Gb:-------------------------------------------------------------|
Db:-----------------0h2------------------------------0h2-4h5-0--|
Ab:------------------------2h3----------------2h3---------------|
Eb:-3333-2222--0000----0000----0000--2h3--0000---0000-----------|

Gb:--------------------------------------------------|
Db:------0h2-----------4h5-----0h2-------------------|
Ab:------------2h3-----------------------------------|
Eb:-0000--0000-----0000----0000----33-22-00-00-00-00-|

Gb:--------------------------------------------------------------------------|
Db:--------------------------------------------------------------------------|
Ab:3333-2----------------3333-2-5--------------3333-2-5-------------3333-2-5-|
Eb:-------3--00-00-00-00-----------0-0-0-0-0-0-----------00-00-00-00---------|

Gb:-----------------------------------------------------|
Db:--------0h2--------------------------------0h2-4h5-0-|
Ab:---------------2h3----------------2h3----------------|
Eb:---0000----0000----0000--2h3--0000----0000-----------|

Gb:-------------------------------------------------|
Db:------0h2-----------4h5-----0h2------------------|
Ab:------------2h3----------------------------------|
Eb:-0000--0000-----0000----0000----0000--3333--2222-|

Gb:-----------------------------------------------------|
Db:--------0h2--------------------------------0h2-4h5-0-|
Ab:---------------2h3----------------2h3----------------|
Eb:---0000----0000----0000--2h3--0000----0000-----------|

Gb:-------------------------------------------------|
Db:------0h2-----------4h5-----0h2------------------|
Ab:------------2h3----------------------------------|
Eb:-0000--0000-----0000----0000----0000--3333--2222-|

Gb:--------------------------------------------------------------------------|
D:---------------------------------------------------------------------------|
Ab:3333-2----------------3333-2-5--------------3333-2-5-------------3333-2-5-|
Eb:-------3--00-00-00-00-----------0-0-0-0-0-0-----------00-00-00-00---------|

Gb:--------------|
Db:--------------|
Ab:-2222-2222-22-|
Eb:--------------|

Outro: Play Riff One Four Times

Riff One
Gb:------------------------------------------------------------------------|
Db:------3p2-----5h7------3p2-----0h2------3p2------5h7------3p2--5h7--0h2-|
Ab:------------------------------------------------------------------------|
Eb:-0000-----0000----0000-----0000----0000-----0000-----0000---------------|

Gb:------------------------------|
Db:------------------------------|
Ab:2222-2222-22----------------3-|
Eb:----------------0-0-0-0-0-0---|


Okay Took me about 2 Hours to tab this out...mostly Because of distractions...but still 
a long time...so like it! haha...just kidding...haha rate it...lol Any 
e-mail me at Fry_bassist@hotmail.com (i'll give you credit on the tab if you send correction)
Suggest correction
What's this?
You can suggest a correction to this tab. Community and Mods will review your correction and vote to approve or reject it.
comments
We did not receive enough feedback on this tab! Please rate:
print report bad tab
1 2 3 4 5
3 comments total.
0 reply
sickmike 97 wrote on April 10 2006, 12:57 am

coldnt even get the intro right

0 reply
sickmike 97 wrote on April 10 2006, 12:57 am

and thats the easyest part

0 reply
JHC_DOH 256 wrote on October 21 2009, 11:38 am

Most of this is incorrect. Although you were pretty close.

guest
You may want to rate the tab now too:
select rating
Please do not post tabs as comments. Select "correction" instead!