Oops, an error
Loading. Please wait.

Immortal Corruptor tab

version 2
version 2

Whole song

by GWAR
583 views 12 this week
no commentswrite comment
1 2 3 4 5
x 4
add to favorites
×
Save as Personal and add changes to this tab that will be seen only by you. Learn more ›
×
You can save this tab as Personal to edit and correct it or add notes. All changes will be seen only by you. Learn more »
launch autoscroll
font size
0
reset
how to read this tab
guitar tuner
edit
Autoscroll
slow
fast
+/-
esc
set tempo
stop
-------------------------------------------------------------------------------
                             SONG NAME - Band Name
-------------------------------------------------------------------------------
Tabbed by: Jorge
E-mail: Kokizuniga4@gmail.com


 Hi, these are all the chords to the song, minus the second solo.
 I wanted to list all the sections in order , but
 it was taking too long and the tab would be a little confusing,
 so instead I just wrote out all the chords and parts once, and hopefully
 you guys can figure it out just by listening to the song. You'll get an
 idea of how many times to play everything.. I have even tabbed out the first solo.
 Please rate if you like this tab. Thanks

 Tune 1/2 a step down



The intro is very soft and hard to hear, so experiment with this part.

|----------------------------------|
|----------------------------------|
|------4-0------0-4-----4--0-----4-|  
|----5--------5-------5--------5---|  
|----------------------------------|
|-0---------0-------0--------0-----|


|---------------------------------------------------------------------------|
|---------------------------------------------------------------------------|
|------4-----4--------------4----4------4------------4----4------4----------|  
|----4--4------4-----2----4----4---4------4---2----4--4-----4------4--------|
|--2------2------2-3----2----2-------2-------3---2------2------2-------5----|
|------------------------------------------------------------------------3--|



 
|----------------------------------------------------|
|----------------------------------------------------|
|----------------------------------------------------|
|----------------------------------------------------|
|-7--7--5--3--5---5--2--5--7---7--5------10--10-9--5-|
|------------------------------------3---------------|


 
|----------------------------------------------------|
|----------------------------------------------------|
|----------------------------------------------------|    
|----------------------------------------------------|   
|-7--7--5--3--5---5--2--5--7--7---2--3--2---2--5-----|
|-------------------------------------------------3--|


 

|-----------------------7-------7-8-----7-8-10-10-/-12-|
|-/8888888--8-8--7-8-10----8-10------10----------------|
|------------------------------------------------------|
|------------------------------------------------------|
|------------------------------------------------------|
|------------------------------------------------------|

  
|-10h12p10-8h10p8-7h8p7-5-7---5------------------------|
|---------------------------8---7----8p7-5p4-----------|   
|--------------------------------------------4h5p4-----|
|------------------------------------------------------|
|------------------------------------------------------|
|------------------------------------------------------|



|---------------------------------------------------|
|---------------------------------------------------|
|---------------------------------------------------|
|--------------3------------------------3-----------|
|-2-2-2--2--2--1--2-2-2----2-2-2--2--2--1--2-2-2----|
|-0-0-0--0--0-----0-0-0----0-0-0--0--0-----0-0-0----|

  

 
|-------------------------------------------------------------------|
|-------------------------------------------------------------------|
|------------------------(5)------------------------10/9-12/14--7/9-|
|--------------3---------(5)--------------3-------------------------|   
|-2-2-2--2--2--1--2-2-2------2-2-2--2--2--1--2-2-2--8/7--10/12--5/7-|
|-0-0-0--0--0-----0-0-0------0-0-0--0--0-----0-0-0------------------|




|------------------------------------------------------------------------|
|------------------------------------------------------------------------|
|------------------------------------------------------------------------|
|--------------3--------5\4--------------------------3----5---4----------|
|-2-2-2--2--2--1--------3\2-------4/5---2-2-2--2--2--1----3---2------4/5-|
|-0-0-0--0--0-----0-0-0-----0-0-0-2/3---0-0-0--0--0-----0---0---0-0--2/3-|
                  . . .     . . .                       .   .   . .   
                                         
 
|------------------------------------------------------------------------|
|------------------------------------------------------------------------|
|--------------------------------------------------------10/9-12/14--7/9-| 
|--------------3--------------------------------3------------------------|  
|-2-2-2--2--2--1--2-2-2---2-2-2----2-2-2--2--2--1--2-2-2-8/7--10/12--5/7-|
|-0-0-0--0--0-----0-0-0---0-0-0----0-0-0--0--0-----0-0-0-----------------|



 
|---------------------------------------------------------------------------------------------------|
|---------------------------------------------------------------------------------------------------|
|---------------------------------------------------------------------------------------------------|
|---------------------------------------------------------------------------------------------------| 
|-----------------2p0------------------------2p0----------------2p0-----------------5p0-7p0-5p0-7p0-|
|-0000-3p0-000000----3p0-0000-3p0-000000-3p0-----0000-3p0-000000---3p0-0000-3p0-5p0-----------------|
  ....     ......        ....     ......         ....     ......       ....



|--------------------------------------------------------------------------------------|
|--------------------------------------------------------------------------------------|
|--------------------------------------------------------------------------------------|
|--------------------------------------------------------------------------------------| 
|-22-22-22-22-2p0----22-22-22-22----2p0-22-22-22-22-2p0----22-2--------5p0-7p0-5p0-7p0-|
|-00-00-00-00----3p0-00-00-00-00-3p0----00-00-00-00----3p0-00-0-3p0-5p0----------------|
  .. .. .. ..        .. .. .. ..        .. .. .. ..        .. .




|-------------------------------------------------------|
|-------------------------------------------------------|
|---------10\9----------12/14---------10/9----------7/9-|
|-------------------------------------------------------|
|---------8\7-----------10/12---------8/7-----------5/7-|
|-0-0-0-0-------0-0-0-0-------0-0-0-0-------0-0-0-0-----|
  . . . .       . . . .       . . . .       . . . .


 
|--------------------------------------------------------|
|--------------------------------------------------------|
|---------10\9-----------12/14----------10/9--12/14--7/9-| 
|--------------------------------------------------------|
|---------8\7------------10/12----------8/7---10/12--5/7-|
|-0-0-0-0-------0-0-0-0--------0-0-0-0-------------------|
  . . . .       . . . .        . . . .




|----------------------------------------------------|
|----------------------------------------------------|
|----------------------------------------------------|
|----------------------------------------------------|
|-7--7--5--3--5---5--2--5--7---7--5------10--10-9--5-|
|------------------------------------3---------------|
  .  .  .  .  .   .  .  .  .   .  .  .    .   . .  .

 
|----------------------------------------------------|
|----------------------------------------------------|
|----------------------------------------------------|   
|----------------------------------------------------|   
|-7--7--5--3--5---5--2--5--7--7---2--3--2---2--5-----|
|-------------------------------------------------3--|
 .   . .   .  .   .  .  .  .  .   .  .  .   .  .  .


|------------7-8----7-------7-8-10-10/12-10~--8-10-8--7-8-7h8p7-----7----------|
|-8~-7-8-10------10----8-10-------------------------------------10---8-10-10~--|
|------------------------------------------------------------------------------|
|------------------------------------------------------------------------------|
|------------------------------------------------------------------------------|
|------------------------------------------------------------------------------|

 
|--------------------------------|
|-10-8-7h87-5-5/7-5---4-5--------|
|--------------------------5p4---|
|------------------------------5-|
|--------------------------------|
|--------------------------------|


 
|--------------------------------------------------------|
|--------------------------------------------------------|
|--------------------------------------------------------|
|--------------------------------------------------------| 
|-2-2-2--2-2-2--2-2-2--2-2-2--2-2-2--2-2-2--5-5-5--4-4-4-|
|-0-0-0--0-0-0--0-0-0--0-0-0--0-0-0--0-0-0--3-3-3--2-2-2-|
  . . .  . . .  . . .  . . .  . . .  . . .  . . .  . . .



|------------------------------------------------------|   
|------------------------------------------------------|   
|--------9-9-9---------9-9-9----------9-9-9------------|   
|------------------------------------------------------| 
|-2-2-2--7-7-7--2-2-2--7-7-7---2-2-2--7-7-7--555---444-|   
|-0-0-0---------0-0-0----------0-0-0---------333---222-|   
  . . .         . . .          . . .                                                                          



 
|--------------------------------------------------|
|--------------------------------------------------|
|--------------------------------------------------|
|--------------------------------------------4h5---|
|------7h8------5h6----2h3-------7h8------5h6----5-|
|-0000-----3333-------0-----0000-----3333----------|
  ....     ....       .     ....     ....

                    
|-----------------------------------|-------------| 
|-----------------------------------|-------------|
|-----------------------------------|-------------|
|-----------------------------------|-------------| 
|------7h8------5h6----9h10------7h8|----55554444-| 
|-0000-----7777-----00------0000----|-00-33332222-|
  ....     ....     ..      ....      .. ........

 
 Fill
|--------------------|
|--------------------|
|--------------------| 
|--------------------| 
|--55-44-22-22-22-22-|
|--33-22-00-00-00-00-|
   .. .. .. .. .. ..


|--------------------------------------------------------|
|--------------------------------------------------------|
|--------------------------------------------------------|
|-5"--4"--7"----------------------5"--4"--7"-------------|
|-3"--2"--5"-222--222--222--222---3"--2"--5"--2-22-2-22--|
|------------000--000--000--000---------------0-00-0-00--|
             ...  ...  ...  ...               . .. . ..                  

 
|---------------------------------------------|
|---------------------------------------------|
|---------------------------------------------| 
|-5"--4"--7"----------------------5"--4"--7"--|  
|-3"--2"--5"-222--222--222--222---3"--2"--5"--|
|------------000--000--000--000---------------|
             ...  ...  ...  ...                  


 
 Fill 
|---------------|
|---------------|
|---------------|
|-4444-4444-44--| 
|-2222-2222-22--|
|---------------|


 
|-------------------------------------------------------|
|-------------------------------------------------------|
|---------10\9----------12/14---------10/9----------7/9-|
|-------------------------------------------------------|
|---------8\7-----------10/12---------8/7-----------5/7-|
|-0-0-0-0-------0-0-0-0-------0-0-0-0-------0-0-0-0-----|
  . . . .       . . . .       . . . .       . . . .


 
|--------------------------------------------------------|
|--------------------------------------------------------|
|---------10\9-----------12/14----------10/9--12/14--7/9-| 
|--------------------------------------------------------|
|---------8\7------------10/12----------8/7---10/12--5/7-|
|-0-0-0-0-------0-0-0-0--------0-0-0-0-------------------|
  . . . .       . . . .        . . . .

 Fill
|---------------|
|---------------|
|---------------|
|-4444-4444-44--| 
|-2222-2222-22--|
|---------------|


 
|-----------------------|
|-----------------------|
|-----------------------|
|--------------------5--|
|--2--2--2--2--2--2--3--|
|--0--0--0--0--0--0-----|

************************************
| "   tremolo pick
| /   slide up
| \   slide down
| h   hammer-on
| p   pull-off
| ~   vibrato
| .   palm mute
| +   harmonic
| x   Mute note
| b   Bend
| pb  Pre-bend
| br  Bend release
| pbr Pre-bend release
| brb Bend release bend
| 

************************************

            
            
Suggest correction
Creating personal tab
Creating personal tab
You can edit any tab online and save it as your Personal.

You can edit, replace or remove any tab part or add personal notes – all changes will be seen only by you.

Personal tabs can be accessed anytime from any device, even offline.
Learn more »
comments
print report bad tab
guest
You may want to rate the tab now too:
select rating
Wanna post a correction for this tab? Suggest correction