Oops, an error
Loading. Please wait.

Jack The World Bass Tab

by GWAR
1,001 views 1 this week
no commentswrite comment
1 2 3 4 5
3 more votes to show rating
add to favorites
launch autoscroll
font size
0
reset
guitar tuner
Autoscroll
slow
fast
+/-
esc
set tempo
stop
Help us to improve Ultimate-Guitar.com Take our survey!
×
Author
-------------------------------------------------------------------------------
Jack the World - GWAR
-------------------------------------------------------------------------------

G-----------------------------------------------|
D-----------------------------------------------|         verse
A-1-1--3----------------------------------------|
E-------333-------------------------------------|

G-----------------------------------------------|
D-----------------------------------------------|        pre chorus
A-1-1--3--1-1--3--1-1--3--1-1--3----------------|
E-----------------------------------------------|


G-----------------------------------------------|
D-----------------------------------------------|     chorus
A-1-1-1-1-1--3-3-3-3-3--------------------------|
E---------------------3-3-3-3-3-3---------------|

AT the end repeat verse   listen 4 timing
Suggest correction
Give kudos to tab author, rate the tab!
1 2 3 4 5
comments
print report bad tab
guest
You may want to rate the tab now too:
select rating
Wanna post a correction for this tab? Suggest correction